» » »

Covenant, Planetarium Tabs (ver.1)

Artists:  A B C D E F G H I J K L M N O P Q R S T U V W X Y Z # 

Planetarium Tabs (ver.1)

Covenant Tabs
Rating:
3/5 (1 vote)
Planetarium lessons Tabs too difficult? Try these video lessons and learn fast
                -----------------------------------------------------------------------------
-----------------------------------------------------------------------------

I did this tab new because i found many wrong Parts in my other Planetarium tab!
This is not perfect but better!


Tuning:Standard

Guit1-Riff1:x1
e|--------------------------------------------------------------------------|
B|-555-4-----------------x2--555-4-555-4-111-0------------------------------|
G|--------555-4-222-1-------------------------------------------------------|
D|--------------------------------------------------------------------------|
A|------------------------3-3------------------3-3--------------------------|
E|------------------------1-1------------------1-1---x4---------------------|

Guit2-Riff1:x1
e|--------------------------------------------------------------------------|
B|--------------------------------------------------------------------------|
G|--------------------------------------------------------------------------|
D|--------------------------------------------------------------------------|
A|-7-7--77--3-3----77-77-77--3-3--------------------------------------------|
E|-5-5--55--1-1-x2-55-55-55--1-1--x4----------------------------------------|

                                                                                         
                                                                Riff2:fast!x2

Guitar1
E|------------------------------------------------------------------------|
B|------------------------------------------------------------------------|
G|---------14--------------17-------------14-------------------------14---|
D|------14----14---------17--17---------14--14----------17---------14—14--|
A|-12h15---------15—15h18-------18-12h15------15------17--17--12h15-----15|
E|-----------------------------------------------15h18------18------------|

E|-----------------------------------------------|
B|------------------------------------20---------|
G|--------17------------14----------19--19-------|
D|------17--17--------14--14---17h20------20-----|
A|-15h18------18—12h15------15-------------------|
E|-----------------------------------------------|

Guitar2
E|-----------------------------------------------|
B|-----------------------------------------------|
G|-----------------------------------------------|
D|-22-55-22-----22-55-22-------------------------|
A|-00-33-00-55--00-33-00-66----------------------|
E|----------33-----------44----------------------|x2

Chorus:x4-lead Guitar
e|------------------------------------------------------------------|
B|------------------------------------------------------------------|
G|-------------2----------------------------------------------------|
D|-----------2--2---------------------------------------------------|
A|-0-0-0 -3-------3-0-0-0-3-2-1-------------------------------------|
E|------------------------------------------------------------------|

Rhytm Guitar- x4

e|--------------------------------------------------------------------------|
B|--------------------------------------------------------------------------|
G|--------------------------------------------------------------------------|
D|----55--------------------------------------------------------------------|
A|-77-33-77-55--------------------------------------------------------------|
E|-55----55-33--------------------------------------------------------------|

Riff1:x1

Riff3:x2
e|--------------------------------------------------------------------------|
B|-----5-4-3------3-2-1-----5-4-3-------------------------------------------|
G|--------------------------------------------------------------------------|
D|--------------------------------------------------------------------------|
A|----------------------------------33-6-7----------------------------------|
E|-555--------555-------555---------11-4-5----------------------------------|

Chorus:x4

Riff4:x2
e|--------------------------------------------------------------------------|
B|--------------------------------------------------------------------------|
G|--------------------------------------------------------------------------|
D|-----------------------------5-5-5-5-555----------------------------------|
A|-7-7-7-7--777--7-7-7-7--777--3-3-3-3-333-6-6-6-6-666----------------------|
E|-5-5-5-5--555--5-5-5-5--555--------------4-4-4-4-444----------------------|

Riff5:x9 Fast!

E|-----------------------------------------------|
B|-----------------------------------------------|
G|-----------------------------------------------|
D|------------14------15-------------------------|
A|--7777—12-15---13-16---?-?---------------------|
E|--5555-----------------------------------------|
Pm…………

Riff3:x2

Riff6:Clean Guitar-x4

E|-------------------------------------------------------|
B|-------------------------------------------------------|
G|-----2----2---3----2-2--4--1-----2----2---3----2-2-2-4-|
D|----2-------------2-------------2-------------2--------|
A|-0-3---0-3—0-3—x3------------0-3---0-3—0-3—x3----------|
E|-------------------------------------------------------|

Riff7:
E|---------------------------------------------|
B|---------------------------------------------|
G|---------2-----------------------------------|
D|--2-1-3-2--------14------15------2-1-3-------|
A|-0----------12-15---13-16------0-------3-5-2-|
E|---------------------------------------------|
Pm…………


Riff1:x4

End!
            
Submit corrections

comments powered by Disqus
↑ Back to top | Covenant Tabs for Planetarium. Lyrics for acoustic guitar and electric guitar. Tablatures and chords are parodies/interpretations of the original songs. You may use it for private study, scholarship, research or language learning purposes only