>
 >
Chariots Of Thunder 1

Chariots Of Thunder 1 Guitar Tabs

Covenant - Chariots Of Thunder 1 chords, tabs, tablatures, lyrics

Guitar lessons | Add/correct | Request | Top 50 tabs Artists:  A B C D E F G H I J K L M N O P Q R S T U V W X Y Z 0-9

Chariots Of Thunder 1 Guitar Tabs – Covenant

CD, Sheet music, Poster

Do you like Chariots Of Thunder 1? Share with your friends now
TabsTabs v2
Corrected by Derz at 11:28 pm !

Artist- covenant (the kovenant)
Song  - chariots of thunder
Album - nexus polaris


00:00
RIFF1: Play 4 times
|------------------------------------------------------|
|------------------------------------------------------|
|o-----------------------------------------------------|
|o-4444-4444-55-4444-4444-33-4444-4444-55-2-2-2-2------|
|--2222-2222-33-2222-2222-11-2222-2222-33-0-0-0-0------|
|------------------------------------------------------|
  PM- -|   PM- - - - -|PM- -|PM- - - - -| 
       

00:33
RIFF2: Play 2 times
|----------------------------------|
|----------------------------------|
|o---------------------------------|
|o-9---9-----9---9-9---9-----9---9-|
|--7-777-77777-777-7-777-77777-777-|
|----------------------------------|
     PM  PM-|  PM    PM  PM-|  PM
|---------------------------------|
|---------------------------------|
|-8---8-----8---8-8---8-----8---8-|
|-8-888-88888-888-8-888-88888-888-|
|-6-666-66666-666-6-666-66666-666-|
|---------------------------------|
  
|---------------------------------|
|---------------------------------|
|---------------------------------|
|-7---7-----7---7-7---7-----7---7-|
|-7-777-77777-777-7-777-77777-777-|
|-5-555-55555-555-5-555-55555-555-|
  

|----------------------------------|
|---------------------------------o|
|---------------------------------o|
|-6-666-66666-666-6-666-66666-666--|
|-4-444-44444-444-4-444-44444-444--|
|----------------------------------|
  
01:05
RIFF1: Play 4 times
01:38
RIFF3a(gtr1)and (gtr2): x2
|------------------|----------------------
|-------------3----|----------------------
|o-2-2h3p2-2-3-3-2-|----------------------
|o-----------------|--2-0--2-0--2-0--2-0--
|------------------|-1----1----1----1----1
|------------------|----------------------

|------------------|----------------------
|-------------3----|----------------------
|o-2-2h3p2-2-3-3-2-|----------------------
|o-----------------|--2-0--2-0--2-0--2-0--
|------------------|-1----1----1----1----1
|------------------|----------------------

|------------------|----------------------
|-------------3----|----------------------
|o-2-2h3p2-2-3-3-2-|----------------------
|o-----------------|--2-0--2-0--2-0--2-0--
|------------------|-1----1----1----1----1
|------------------|----------------------

Riff3b(gtr1):x2

|------------------|----------------------
|-------3---2------|----------------------
|o-2-2/3-2-3-3-2---|----------------------
|o-----------------|--2-0--2-0--2-0--2-0--
|------------------|-1----1----1----1----1
|------------------|----------------------

|------------------|----------------------
|-------3---2------|----------------------
|o-2-2/3-2-3-3-2---|----------------------
|o-----------------|--2-0--2-0--2-0--2-0--
|------------------|-1----1----1----1----1
|------------------|----------------------

|------------------|----------------------
|-------3---2------|----------------------
|o-2-2/3-2-3-3-2---|----------------------
|o-----------------|--2-0--2-0--2-0--2-0--
|------------------|-1----1----1----1----1
|------------------|----------------------

02:26
RIFF3b(gtr2): Play 2 times, 
|----------------------------------|
|----------------------------------|
|o-2-2--/7------------------2-2--/7|
|o---------------------------------|
|----------------------------------|
|----------------------------------|

|----------|------10------10------10------10----------10-----------|
|----------|-10-11---10-11---10-11---10-11---10--10/11--11-10/11---|
|-2-2/7----|-------------------------------------------------------|
|----------|-------------------------------------------------------|
|----------|-------------------------------------------------------|
|----------|-------------------------------------------------------|


02:43
RIFF4: Play 2 times
|---------------------------------|
|---------------------------------|
|o-2------------------------------|
|o-2------------------------------|
|--0-0-0-0-0----------------------|
|------------3-3-3-3-0-0----------|
      PM- - - - - - - - - -|
|---------------------------------|
|---------------------------------|
|--2------------------------------|
|--2---------------------5--------|
|--0-0-0-0-0-------------3--------|
|------------3-3-3-3-0-0----------|
      PM- - - - - - - - - -|
|---------------------------------|
|---------------------------------|
|--2------------------------------|
|--2------------------------------|
|--0-0-0-0-0----------------------|
|------------3-3-3-3-0-0----------|
      PM- - - - - - - - - -|
|---------------------------------|
|---------------------------------|
|--2------------------------------|
|--2---------------------5--------|
|--0-0-0-0-0-------------3--------|
|------------3-3-3-3-0-0----------|
      PM- - - - - - - - - -|
|---------------------------------|
|---------------------------------|
|---------------------------------|
|--2------------------------------|
|--2-7-7-7-7----------------------|
|--0---------10-10-10-10-7-7------|
      PM- - - - - - - - - -|  
|---------------------------------|
|---------------------------------|
|---------------------------------|
|--2-------------------------5----|
|--2-7-7-7-7-----------------3----|
|--0---------10-10-10-10-7-7------|
      PM- - - - - - - - - -|
|---------------------------------|
|---------------------------------|
|---------------------------------|
|--2------------------------------|
|--2-7-7-7-7----------------------|
|--0---------10-10-10-10-7-7------|
      PM- - - - - - - - - -| 
|---------------------------------|
|---------------------------------|
|--------------------------------o|
|--2-------------------------5---o|
|--2-7-7-7-7-----------------3----|
|--0---------10-10-10-10-7-7------|
      PM- - - - - - - - - -|

03:16
RIFF1: Play 4 times
03:48
Solo: Riff2 is solo rhytm x1

|-19^15--------------------------------------|
|------17------------------------------------|
|--------16\12-------------------------------|
|-----------------14/16-14/17-17\16-14^16^14-|
|--------------------------------------------|
|--------------------------------------------|

|-15^11--------???????????????????-|
|------13--------------------------|
|--------12\8----------------------|
|----------------------------------|
|----------------------------------|
|----------------------------------|

|---------------------------|
|---------------------------|
|---------------------------|
|--------7--9--10-9--10--7--|
|---------------------------|
|---------------------------|

|-12^9----vibrato-bar-effect(15^)-|
|-----10--------------------------|
|--------9------------------------|
|---------------------------------|
|---------------------------------|
|---------------------------------|

04:04
RIFF2: Play once
04:20
RIFF5: Play Till End
|-----------------------------------|
|-----------------------------------|
|o----------------------------------|
|o4---4-----4----4-6-6-6666-444-----|
|-4---4--4444--444-4-4-4444-444-----|
|-2---2--2222--222------------------|
         PM|   PM         PM|   PM
|------------------------------------|
|------------------------------------|
|-4---4-----4----4------------------o|
|-4---4--4444--444-----7------------o|
|-2---2--2222--222-7-7-7--7777777777-|
|------------------5-5-5--5544444444-|
         PM|   PM  PM-|   PM- - - - |

Behold the Faithless and his Angel...





Comments


Popular Covenant tabs & chords
Invisible & Silent Chords
Bizarre Cosmic Industries Tabs
Chariots Of Thunder Tabs
Planetarium 1 Tabs
The Chasm Tabs
The Chasm 1 Tabs
The Last Of Dragons Intro Tabs
The Sulphur Feast Tabs
Towards The Crown Of Nights Tabs
The World Is Growing Loud Ukulele


Song lyrics



↑ Back to top | Tablatures and chords are parodies/interpretations of the original songs. You may use it for private study, scholarship, research or language learning purposes only
© 2014 AZChords.com Contact us | Privacy policy | DMCA | Add/correct tabs | Request tabs | Top 50 tabs