» » »

Covenant, Chariots Of Thunder Tabs (ver.1)

Artists:  A B C D E F G H I J K L M N O P Q R S T U V W X Y Z # 

Chariots Of Thunder Tabs (ver.1)

Covenant Tabs
Rating:
4/5 (1 vote)
Chariots Of Thunder lessons Tabs too difficult? Try these video lessons and learn fast
                "Chariots of thunder"



00:00
RIFF1: Play 4 times
|------------------------------------------------------|
|------------------------------------------------------|
|o------4--------------5--5--------4--------------3--3-|
|o------4--------------5--5--------4--------------3--3-|
|-2-1-2-2--2-1-2-1-2-1-3--3--2-1-2-2--2-1-2-1-2-1-1--1-|
|------------------------------------------------------|
  PM- -|   PM- - - - -|      PM- -|   PM- - - - -| 
       

|-------------------------------------------------------|
|-------------------------------------------------------|
|-------4--------------5--5------5------5------5------5o|
|-------4--------------5--5------2------2------2------2o|
|-2-1-2-2--2-1-2-1-2-1-3--3--0-0-0--0-0-0--0-0-0--0-0-0-|
|-------------------------------------------------------|
  PM- -|   PM- - - - -|      PM-|   PM-|   PM-|   PM-|

00:33
RIFF2: Play 2 times
|----------------------------------|
|----------------------------------|
|o---------------------------------|
|o-9---9-----9---9-9---9-----9---9-|
|--7-777-77777-777-7-777-77777-777-|
|--0-000-00000-000-0-000-00000-000-|
     PM  PM-|  PM    PM  PM-|  PM
|---------------------------------|
|---------------------------------|
|-8---8-----8---8-8---8-----8---8-|
|-8-888-88888-888-8-888-88888-888-|
|-6-666-66666-666-6-666-66666-666-|
|---------------------------------|
  sim.
|---------------------------------|
|---------------------------------|
|---------------------------------|
|-7---7-----7---7-7---7-----7---7-|
|-7-777-77777-777-7-777-77777-777-|
|-5-555-55555-555-5-555-55555-555-|
  sim.
|----------------------------------|
|----------------------------------|
|---------------------------------o|
|-6---6-----6---6-6---6-----6---6-o|
|-4-444-44444-444-4-444-44444-444--|
|-4-444-44444-444-4-444-44444-444--|
  sim.
01:05
RIFF1: Play 4 times
01:38
RIFF3a(gtr1): Play 2 times
|------------------|------------------|
|------------------|------------------|
|o-2--2-2^3-0--0^3-|-2--2-2/3-7^3-2^3-|
|o-----------------|------------------|
|------------------|------------------|
|------------------|------------------|

|------------------|--------------------------------|
|------------------|--------------------------------|
|-2--2-2^3-0--0--0-|-------------------------------o|
|------------------|--2^0--2^0--2^0--2^0--2^0--2^0-o|
|------------------|-1----1----1----1----1----1-----|
|------------------|--------------------------------|
                    PM    |    |    |    |    |
02:26
RIFF3b(gtr2): Play 2 times, 
Play RIFF3a(gtr1) 2 times
|----------------------------------|
|----------------------------------|
|o-2--/7-------------------2--/7---|
|o---------------------------------|
|----------------------------------|
|----------------------------------|

|----------|----------------------------------------|
|----------|----------------------------------------|
|-2--/7----|-0-5^3-0-5^3-0-5^3-0-5^3-0-5^3-0-5^3-0-o|
|----------|---------------------------------------o|
|----------|----------------------------------------|
|----------|----------------------------------------|
            PM     |     |     |     |     |     |
02:42
FILL IN:
|----------------12-14FBR-12-14-|
|-------------------------------|
|-------------------------------|
|-------------------------------|
|-------------------------------|
|-------------------------------|

02:43
RIFF4: Play 2 times
|---------------------------------|
|---------------------------------|
|o-2--2-3---2---------------------|
|o-2------5---3-5-2-3---2---------|
|--0------------------5---3-5-1-3-|
|---------------------------------|
      PM- - - - - - - - - - - - -|
|---------------------------------|
|---------------------------------|
|--2--2-3---2-----------------3---|
|--2------5---3-5-2-3---2-----3---|
|--0------------------5---3---1---|
|---------------------------------|
      PM- - - - - - - - - -|
|---------------------------------|
|---------------------------------|
|--2--2-3---2---------------------|
|--2------5---3-5-2-3---2---------|
|--0------------------5---3-5-1-3-|
|---------------------------------|
      PM- - - - - - - - - - - - -|
|---------------------------------|
|---------------------------------|
|--2--2-3---2---------------------|
|--2------5---3-5-2-3---2-----3---|
|--0------------------5---3---3---|
|-----------------------------1---|
      PM- - - - - - - - - -|
|---------------------------------|
|---------------------------------|
|---------------------------------|
|--2--2-3---2---------------------|
|--2------5---3-5-2-3---2---------|
|--0------------------5---3-5-1-3-|
      PM- - - - - - - - - - - - -|  
|---------------------------------|
|---------------------------------|
|---------------------------------|
|--2--2-3---2-----------------3---|
|--2------5---3-5-2-3---2-----3---|
|--0------------------5---3---1---|
      PM- - - - - - - - - -|
|---------------------------------|
|---------------------------------|
|---------------------------------|
|--2--2-3---2---------------------|
|--2------5---3-5-2-3---2---------|
|--0------------------5---3-5-1-3-|
      PM- - - - - - - - - - - - -| 
|---------------------------------|
|---------------------------------|
|-----------------------------3--o|
|--2--2-3---2-----------------3--o|
|--2------5---3-5-2-3---2-----1---|
|--0------------------5---3-------|
      PM- - - - - - - - - -|

03:16
RIFF1: Play 4 times
03:48
Solo: Play RIFF2 once

|-19^15--------------------------------------|
|------17------------------------------------|
|--------16\12----12/14-14/16-16\14-12^14^12-|
|----------(gtr2:)14/16-14/17-17\16-14^16^14-|
|--------------------------------------------|
|--------------------------------------------|

|-15^11--------bla\bla\bla\bla\bla-|
|------13--------------------------|
|--------12\8----------------------|
|----------------------------------|
|----------------------------------|
|----------------------------------|

|---------------------------|
|---------------------------|
|-(gtr1:)5--7---9-7---9--5--|
|-(gtr2:)7--9--10-9--10--7--|
|---------------------------|
|---------------------------|

|-12^9------vibrato-bar-effect(?)-|
|-----10\5------------------------|
|---------------------------------|
|---------------------------------|
|---------------------------------|
|---------------------------------|

04:04
RIFF2: Play once
04:20
RIFF5: Play 4 times
|-----------------------------------|
|-----------------------------------|
|o----------------------------------|
|o4---4-----4----4-2---2-----2----2-|
|-4---4--4444--444-2---2--2222--222-|
|-2---2--2222--222-0---0--0000--000-|
         PM|   PM         PM|   PM
|------------------------------------|
|------------------------------------|
|-4---4-----4----4------------------o|
|-4---4--4444--444-----7------------o|
|-2---2--2222--222-7-7-7--7777777777-|
|------------------5-5-5--5544444444-|
         PM|   PM  PM-|   PM- - - - |
04:53
RIFF6: Play lots of times and fade:
|-------------------------------------|
|-------------------------------------|
|o------------------------------------|
|o----4-----------------2-------------|
|-4-4-4--4444444444-2-2-2--2222222222-|
|-2-2-2--2222222222-0-0-0--0000000000-|
  PM-|   PM- - - - - - |   PM|   PM

|-------------------------------------|
|-------------------------------------|
|-----4------------------------------o|
|-4-4-4--4444444444-----7------------o|
|-2-2-2--2222222222-7-7-7--7777777777-|
|-------------------5-5-5--5544444444-|
  PM-|   PM- - - - - - |   PM- - - - |
            
Submit corrections

comments powered by Disqus
↑ Back to top | Covenant Tabs for Chariots Of Thunder. Lyrics for acoustic guitar and electric guitar. Tablatures and chords are parodies/interpretations of the original songs. You may use it for private study, scholarship, research or language learning purposes only