>
 >
Colorblind

Colorblind Guitar Tabs

Counting Crows - Colorblind chords, tabs, tablatures, lyrics

Guitar lessons | Add/correct | Request | Top 50 tabs Artists:  A B C D E F G H I J K L M N O P Q R S T U V W X Y Z 0-9

Colorblind Guitar Tabs – Counting Crows

CD, Sheet music, Poster

Do you like Colorblind? Share with your friends now
Bass TabsChordsChords v2TabsTabs v2Tabs v3Tabs v4Ukulele
There are only non - capo versions to find so I decided to make a capo version of this
song. This way it sounds realy nice. enjoy it.

After three years I finally improved this tab, thank for the suggestions!!

Tuning: Standart.
Capo: on the 5th fret.

Intro:

E|---------------------------0--------------------------------|
B|-----------3-------------------------------1-------1--------|
G|-----0---0---0---0---0---0---0---0---0---0---0---0---0------|
D|--2----2-------2---2---2-------2---2---2-------2-------2----|
A|-----------------------------------3-----------3------------|
E|--0----------------1-----------------------1----------------|
                                               get slower here.

Verse 1 and 2:

E|---------------------------0-------------------------------------|
B|-----------3-------------------------------1-------1------1------|
G|-----0---0---0---0---0---0---0---0---0---0---0---0---0--0---0--0-|
D|--2----2-------2---2---2-------2---2---2-------2-------2------2--|
A|-----------------------------------3-----------3-------3---------|
E|--0----------------1-----------------------1-----------|----------|
                                             | get slower|here at verse 1
                                  get slower |here at verse 2, 3 and 4 


Outro:

E|------------|
B|---1--------|
G|-----0---0--| 
D|-------2----|
A|------------|
E|------------|





Comments


Popular Counting Crows tabs & chords
40 Years Chords
Four White Stallions Chords
Holiday In Spain 3 Chords
Mercy Chords
Mr Jones 2 Chords
Around Here 1 Tabs
Carriage Tabs
Rain King 1 Tabs
Raining In Baltimore Tabs
Im Not Sleeping Ukulele


Song lyrics



↑ Back to top | Tablatures and chords are parodies/interpretations of the original songs. You may use it for private study, scholarship, research or language learning purposes only
© 2014 AZChords.com Contact us | Privacy policy | DMCA | Add/correct tabs | Request tabs | Top 50 tabs