» » »

Colorblind Tabs (ver.3)

Artists:  A B C D E F G H I J K L M N O P Q R S T U V W X Y Z # 

Colorblind Tabs (ver.3)

Counting Crows
Rating:
4/5 (7 votes)

Hard to play? Try these video lessons and learn fast.
                ----------------------------------------------------------------------------
                             COLORBLIND - Counting Crows
----------------------------------------------------------------------------
Tuning: standard

INTRO + VERSE
=============
(repeat 2 times for the Íntro, then play it throughout the whole song,
except for a few parts I stated below:)
e|-----------------|---------5-------|-----------------|-----------------|
B|---------8-------|-----------------|---------6-------|-6-------6-------|
G|---5---5---5---5-|---5---5---5---5-|---5---5---5---5-|---5---5---5---5-|
D|-7---7-------7---|-7---7-------7---|-7---7-------7---|-----7-------7---|
A|-0---------------|-0---------------|-8---------------|-8---------------|
E|-----------------|-----------------|-----------------|-----------------|
(3rd time) I am...  co...lor...     blind...

Coffee black and egg white 
Pull me out from inside 
I am ready, I am ready, I am ready, I am... 

Taffy stuck, tongue tied 
Stuttered shook and uptight 
Pull me out from inside 
I am ready, I am ready, I am ready, I am...

(With this I tried to imitate the flute:)
e|-6-------5-------|-8-------5---6---5-------|-------------------|
B|-----------------|-------------------------|-6-------6-------6-|
G|---5---5---5---5-|---5---5---5---5---5---5-|---5---5---5---5---|
D|-----7-------7---|-----7---------------7---|-----7-------7-----|
A|-8---------------|-------------------------|---------8---------|
E|-----------------|-------------------------|-------------------|
   ...fine...

I am covered in...

(Trying to imitate the violine:)
e|-----------------|-------------------|
B|---------6-------|-6-------6---------|
G|---5---5---5---5-|---5---5---5---5---|
D|-7---7-------7---|-----7-------7-----|
A|-8---------------|-7-------8---------|
E|---------8-------|-------------------|
...skin...

No one gets to come in 
Pull me out from in...

(Again the violine, look at the bass:)
e|-----------------|-------------------|
B|---------6-------|-6-------6---------|
G|---5---5---5---5-|---5---5---5---5---|
D|-7---7-------7---|-----7-------7-----|
A|-8-------8-------|-7-------5---------|
E|-----------------|-------------------|
   ...side...

e|-----------------|---------5-------|-----------------|-----------------|
B|---------8-------|-----------------|---------6-------|-6-------6-------|
G|---5---5---5---5-|---5---5---5---5-|---5---5---5---5-|---5---5---5---5-|
D|-7---7-------7---|-7---7-------7---|-7---7-------7---|-----7-------7---|
A|-----------------|-0---------------|-8---------------|-----------------|
E|-8---------------|-----------------|-----------------|-----------------|
           I am...   folded, and un... folded, and un... folding I am...

...color...blind 
Coffee black and egg white 
Pull me out from inside 
I am ready, I am ready, I am ready, I am...

(Again the flute...)
e|-6-------5-------|-8-------5---6---5-------|-------------------------|
B|-----------------|-------------------------|-6-------6-------6-------|
G|---5---5---5---5-|---5---5---5---5---5---5-|---5---5---5---5---5---5-|
D|-----7-------7---|-----7---------------7---|-----7-------7-------7---|
A|-8---------------|-------------------------|---------8---------------|
E|-----------------|-------------------------|-------------------------|
   ...fine...                                                  I am...

e|-6-------5-------|-8-------5---6---5-------|-------------------------X-|
B|-----------------|-------------------------|-6-------6-------6-------6-|
G|---5---5---5---5-|---5---5---5---5---5---5-|---5---5---5---5---5---5-5-|
D|-----7-------7---|-----7---------------7---|-----7-------7-------7---7-|
A|-8---------------|-------------------------|---------8---------------8-|
E|-----------------|-------------------------|-------------------------X-|
  ...fine...                                                   I am fine.

==========================================================================
LYRICS:

I am color...blind 
Coffee black and egg white 
Pull me out from inside 
I am ready, I am ready, I am ready, I am...

Taffy stuck, tongue tied 
Stuttered shook and uptight 
Pull me out from inside 
I am ready, I am ready, I am ready, I am... fine 

I am covered in skin 
No one gets to come in 
Pull me out from inside 
I am folded, and unfolded, and unfolding 
I am... colorblind 

Coffee black and egg white 
Pull me out from inside 
I am ready, I am ready, I am ready, I am... fine
I am.... fine, I am fine.
            
Hard to play? Try these video lessons and learn fast. | Correct




comments powered by Disqus
↑ Back to top | Tablatures and chords are parodies/interpretations of the original songs. You may use it for private study, scholarship, research or language learning purposes only