» » »

Cooper Temple Clause, The Same Mistakes Bass tabs (ver.2)

Artists:  A B C D E F G H I J K L M N O P Q R S T U V W X Y Z # 

The Same Mistakes Bass tabs (ver.2)

Cooper Temple Clause Tabs
 Rating:
4/5 (4 votes)
The Same Mistakes lessons Tabs too difficult? Try these video lessons and learn fast
                Bassist: Didz
Tuning: Standard (E A D G)

I've been looking on the net for ages looking for this tab, And I couldn't find it anywhere, So I thought
bass. Hope you enjoy!!

You'll need a pick to play this song. Well you don't have to, But Didz uses one.. =P

Bass Comes In At 00:14
This is pretty much repeated throughout the song...
G|--------------------------|------------------------
D|--------------------------|------------------------
A|---3--3/6--6--5--5/8--8---|-6--6--6--6--6--6--6--6-
E|--------------------------|------------------------

G|--------------------------|------------------------
D|---5--5/3--3--6--6--5--6--|------------------------
A|--------------------------|-5--5--5--5--5--5--5--6-
E|--------------------------|------------------------

G|--------------------------|----------------------------------
D|--------------------------|----------------------------------
A|----3--3/8--8--6--6--5--5-|-/10--10--10--10--10--10--10--10--
E|--------------------------|----------------------------------

G|---3--3/5--5--------------|------------------------
D|---------------5--5--1--0-|-3--3--3--3--3--3--3/5--
A|--------------------------|------------------------
E|--------------------------|------------------------

G|--------------------------|-------------------------
D|---1--1--1--1--1--1--1/3--|-0--0--0--0--0--0--0--0--
A|--------------------------|-------------------------
E|--------------------------|-------------------------

At 1:46 it changes to...

G|-------------------------|-------------------------
D|-------------------------|-0--0--0--0--0--0--0--0--  There is a few slides somewhere, I'll figure them out soon
A|--3--3--3--3--3--3--3--3-|-------------------------  and I'll update this tab.
E|-------------------------|-------------------------
Ben is singing "No you can't keep making the same mistakes" At this point.

At 3:08 the Didz puts in a few more notes.. So just play the verse just put more 3's 6's 5's and 8's in!!
Just listen to it, You'll work it out =)

Please rate this tab!!! =)
If you want to E-mail me about something, 
            
Submit corrections

comments powered by Disqus
↑ Back to top | Cooper Temple Clause Bass for The Same Mistakes. Lyrics for acoustic guitar and electric guitar. Tablatures and chords are parodies/interpretations of the original songs. You may use it for private study, scholarship, research or language learning purposes only