» » »

Cooper Temple Clause, The Same Mistakes Bass tabs (ver.1)

Artists:  A B C D E F G H I J K L M N O P Q R S T U V W X Y Z # 

The Same Mistakes Bass tabs (ver.1)

Cooper Temple Clause Tabs
 Rating:
4/5 (5 votes)
The Same Mistakes lessons Tabs too difficult? Try these video lessons and learn fast
1
                I've been looking on the net for ages looking for this tab, And I couldn't find it anywhere, So I thought
bass.


I've been editing this tab, It's now pretty much played on the two strings D and A, It sounds more like the song then what my first one did..
I hope someones glad it was tabbed cause it's been a pain for me to do!!


You'll need a pic to play this song.

Bass Comes In At 00:14
This is pretty much repeated throughout the song...
G|--------------------------|-------------------------
D|--------------------------|-------------------------
A|---3--3/6--6--5--5/8--8---|-\6--6--6--6--6--6--6--6-
E|--------------------------|-------------------------

G|----------------------------|-------------------------
D|----------------------------|-------------------------
A|--10--10--8--8/11-11-10-11--|-\5--5--5--5--5--5--5--6-
E|----------------------------|-------------------------

G|--------------------------|----------------------------------
D|--------------------------|----------------------------------
A|----3--3/8--8--6--6--5--5-|-/10--10--10--10--10--10--10--10--
E|--------------------------|----------------------------------

G|--------------------------|-------------------------
D|--8-8--10-10--------------|-------------------------
A|-------------10-10\--6-5--|-/8--8--8--8--8--8--8/10-
E|--------------------------|-------------------------

G|--------------------------|-------------------------- 
D|--------------------------|--------------------------
A|---6--6--6--6--6--6--6/8--|-\5--5--5--5--5--5--5--5--
E|--------------------------|--------------------------

At 1:46 it changes to...

G|-------------------------|-------------------------
D|-------------------------|-0--0--0--0--0--0--0--0--  There is a few slides somewhere, I'll figure them out soon
A|--3--3--3--3--3--3--3--3-|-------------------------  and I'll update this tab.
E|-------------------------|-------------------------
Ben is singing "No you can't keep making the same mistakes" At this point.

At 3:08 the Didz puts in a few more notes.. So just play the verse just put more 3's 6's 5's and 8's in!!
Just listen to it, You'll work it out =)

Please rate this tab!!! =)
If you want to E-mail me about something, 
            
Submit corrections

comments powered by Disqus
↑ Back to top | Cooper Temple Clause Bass for The Same Mistakes. Lyrics for acoustic guitar and electric guitar. 1 Tablatures and chords are parodies/interpretations of the original songs. You may use it for private study, scholarship, research or language learning purposes only