>
 >
Zeal 1

Zeal 1 Guitar Tabs

Confide - Zeal 1 chords, tabs, tablatures, lyrics

Guitar lessons | Add/correct | Request | Top 50 tabs Artists:  A B C D E F G H I J K L M N O P Q R S T U V W X Y Z 0-9

Zeal 1 Guitar Tabs – Confide

CD, Sheet music, Poster

Do you like Zeal 1? Share with your friends now
Bass TabsTabsTabs v2
-------------------------------------------------------------

        ZEAL - Confide (Rythm Guitar/w Distortion)

-------------------------------------------------------------


TAB FOUND AT SONGSTERR.COM
For the timing and to listen to midi of this tab:

(You had to pay for a subscription to print it, so I just typed it out instead :P)

Tuning: DROP C ( C-G-c-F-A-D )

TABLATURE LEGEND
************************

 _= Let the note ring.
 \= Slide down.

************************

D |----0--0--0--0--0--0--0--0----|
A |----6--6--6--6--6--6--6--6----|
F |----5--5--5--5--5--5--5--5----|
c |----7--7--7--7--7--7--7--7----|     REPEAT 16x
G |----0--0--0--0--0--0--0--0----|
C |------------------------------|


|------------------------------|------------------------------|
|------------------------------|------------------------------|
|------------------------------|------------------------------|
|----0_________________________|_______-----------------------|
|----0_________________________|_______-----------------------|
|----0_________________________|_______-----------------------|


|------------------------------|
|------------------------------|
|------------------------------|
|------------------------------|
|----0-0-0-0-0-0-0-0-0---------|
|----0-0-0-0-0-0-0-0-0---------|


|------------------------------|------------------------------|
|------------------------------|------------------------------|
|------------------------------|------------------------------|     REPEAT 7x
|-------------10-----------7___|____--------------------------|
|----8--0--0------7--7--8--8___|____--0--0--7--7-7-7-7-7--8---|
|----8--0--0-------------------|------0--0--7-----------------|


|------------------------------|------------------------------|
|------------------------------|------------------------------|
|------------------------------|------------------------------|
|-------------10-----------7___|____---7--7--7--7--7--7-------|
|----8--0--0------7--7--8--8___|____---7--7--7--7--7--7-------|
|----8--0--0-------------------|-------7--7--7--7--7--7--0----|


|------------------------------|------------------------------|
|------------------------------|------------------------------|
|------------------------------|------------------------------|
|---10-10-10-10-10-10-10-10----|---10-10-10-10--7--7--7--7----|
|----8--8--8--8--8--8--8--8----|----8--8--8--8--8--8--8--8----|
|----8--8--8--8--8--8--8--8----|----8--8--8--8--7--7--7--7----|


|------------------------------|------------------------------|
|------------------------------|------------------------------|
|------------------------------|------------------------------|
|----7--7--7--7-10_10\---------|----------7_____-7--0--7------|
|----8--8--8--8-10_10\----0____|____---0--8_____-7--0--7------|
|----7--7--7--7-10_10\----0____|____---0---------7--0--7------|


|------------------------------|------------------------------|
|------------------------------|------------------------------|
|------------------------------|------------------------------|
|-----------------10\----------|----------7_____-7--0--7------|
|----7-7-7-7-7--8-10\-------0__|____---0--8_____-7--0--7------|
|-----------------10\-------0__|____---0---------7--0--7------|


|------------------------------|
|------------------------------|
|------------------------------|
|-----------------10-10-10-10--|
|----7-7-7-7-7--8--8--8--8--8--|
|------------------8--8--8--8--|


|------------------------------|
|------------------------------|
|------------------------------|
|---10-10-10-10-10-10-10-10----|
|----8--8--8--8--8--8--8--8----|
|----8--8--8--8--8--8--8--8----|


|------------------------------|
|------------------------------|
|------------------------------|
|----7--7--7--7--7--7--7--7----|
|----7--7--7--7--7--7--7--7----|
|----7--7--7--7--7--7--7--7----|


|------------------------------|------------------------------|
|------------------------------|------------------------------|
|------------------------------|------------------------------|     REPEAT 1x
|---10\------------7___________|____---7--0--7----------------|
|---10\----0----0--8___________|____---7--0--7--7-7-7-7-7--8--|
|---10\----0----0--------------|-------7--0--7----------------|


|------------------------------|
|------------------------------|
|------------------------------|
|---10-10-10-10-10-10-10-10----|
|----8--8--8--8--8--8--8--8----|
|----8--8--8--8--8--8--8--8----|


|------------------------------|
|------------------------------|
|------------------------------|
|---10-10-10-10--7--7--7--7----|
|----8--8--8--8--7--7--7--7----|
|----8--8--8--8--7--7--7--7----|


|------------------------------|
|------------------------------|
|------------------------------|
|----7-10-10-------------------|
|----7--8--8-------------------|
|----7--8--8-------------------|


|----0--0--0--0--0--0--0--0----|
|----6--6--6--6--6--6--6--6----|
|----5--5--5--5--5--5--5--5----|       REPEAT 8x
|----7--7--7--7--7--7--7--7----|
|----0--0--0--0--0--0--0--0----|
|------------------------------|


|----0-------------------------|
|----6-------------------------|
|----5-------------------------|       Repeat 4x
|----7-------------------------|
|----0-------------------------|
|------------------------------|


|------------------------------|------------------------------|
|------------------------------|------------------------------|
|------------------------------|------------------------------|     REPEAT 4x
|------------------------------|------------------------------|
|----0--------------------0----|----0-------------------------|
|----0--------------------0----|----0-------------------------|


|------------------------------|
|------------------------------|
|------------------------------|
|---10-10-10-10-10-10-10-10----|
|----8--8--8--8--8--8--8--8----|
|----8--8--8--8--8--8--8--8----|


|------------------------------|
|------------------------------|
|------------------------------|
|---10-10-10-10--7--7--7--7----|
|----8--8--8--8--8--8--8--8----|
|----8--8--8--8--7--7--7--7----|


|------------------------------|------------------------------|
|------------------------------|------------------------------|
|------------------------------|------------------------------|
|----7--7--7--7-10_10\---------|----------7_____-7--0--7------|
|----8--8--8--8-10_10\----0____|____---0--8_____-7--0--7------|
|----7--7--7--7-10_10\----0____|____---0---------7--0--7------|


|------------------------------|------------------------------|
|------------------------------|------------------------------|
|------------------------------|------------------------------|
|-----------------10\----------|----------7_____-7--0--7------|
|----7-7-7-7-7--8-10\-------0__|____---0--8_____-7--0--7------|
|-----------------10\-------0__|____---0---------7--0--7------|


|------------------------------|
|------------------------------|
|------------------------------|
|-----------------10-10-10-10--|
|----7-7-7-7-7--8--8--8--8--8--|
|------------------8--8--8--8--|


|------------------------------|
|------------------------------|
|------------------------------|
|---10-10-10-10-10-10-10-10----|
|----8--8--8--8--8--8--8--8----|
|----8--8--8--8--8--8--8--8----|


|------------------------------|
|------------------------------|
|------------------------------|
|----7--7--7--7--7--7--7--7----|
|----7--7--7--7--7--7--7--7----|
|----7--7--7--7--7--7--7--7----|


|------------------------------|------------------------------|
|------------------------------|------------------------------|
|------------------------------|------------------------------|       REPEAT 1x
|---10\------------7___________|____---7--0--7----------------|
|---10\----0----0--8___________|____---7--0--7--7-7-7-7-7--8--|
|---10\----0----0--------------|-------7--0--7----------------|


|------------------------------|
|------------------------------|
|------------------------------|
|---10-10-10-10-10-10-10-10----|
|----8--8--8--8--8--8--8--8----|
|----8--8--8--8--8--8--8--8----|


|------------------------------|
|------------------------------|
|------------------------------|
|---10-10-10-10--7--7--7--7----|
|----8--8--8--8--7--7--7--7----|
|----8--8--8--8--7--7--7--7----|


|------------------------------|
|------------------------------|
|------------------------------|
|----7--7--7--7-10-------------|
|----7--7--7--7-10-------------|
|----7--7--7--7-10-------------|


|----0--0--0--0--0--0--0--0----|
|----6--6--6--6--6--6--6--6----|
|----5--5--5--5--5--5--5--5----|
|----7--7--7--7--7--7--7--7----|     REPEAT 16x
|----0--0--0--0--0--0--0--0----|
|------------------------------|


|----0_________________________|____--------------------------|
|----6_________________________|____--------------------------|
|----5_________________________|____--------------------------|
|----7_________________________|____--------------------------|
|----0_________________________|____--------------------------|
|------------------------------|------------------------------|





Comments


Popular Confide tabs & chords
Can't See The Forest For The Trees Bass Tabs
If We Were A Sinking Ship Bass Tabs
In Reply Bass Tabs
Zeal Bass Tabs
Can't See The Forest For The Trees 1 Tabs
In Reply Tabs
My Choice Of Words Tabs
Now Or Never Intro Tabs
Such Great Heights 1 Tabs
Zeal Tabs


Song lyrics



↑ Back to top | Tablatures and chords are parodies/interpretations of the original songs. You may use it for private study, scholarship, research or language learning purposes only
© 2014 AZChords.com Contact us | Privacy policy | DMCA | Add/correct tabs | Request tabs | Top 50 tabs