» » »

Confide, Zeal Bass tabs (ver.1)

Artists:  A B C D E F G H I J K L M N O P Q R S T U V W X Y Z # 

Zeal Bass tabs (ver.1)

Confide Tabs
Rating:
4/5 (1 vote)
Zeal lessons Tabs too difficult? Try these video lessons and learn fast
                Intro
F |---------------------------------------------------------------------|
C |---------------------------------------------------------------------|
G |---------------------------------------------------------------------|
C |-7-7-7-7-7-7-7-7-7-7-7-7-12-12-10-10---------------------------------|X2

Riff
F |----------------------------------------------------------------------|
C |-------10-----7-------------------------------------------------------|
G |----------7-8---------7-7-7h8-----------------------------------------|
C |-8p0-0----------0h7p0-------------------------------------------------|X8

Chorus
F |----------------------------------------------------------------------|
C |----------------------------------------------------------------------|
G |--------------------------8-0-7-7-7h8---------------------------------|
C |-8-8-8-8--7-7-7-7-8/0-0-0---------------------------------------------|X2

Verse
F |---------------------------------------------------------------------|
C |---------------------------------------------------------------------|
G |---------------------------------------------------------------------|
C |-7-7-7-7-7-7-7-7-7-7-7-7-12-12-10-10---------------------------------|

Breakdown
F |----------------------------------------------------------------------|
C |----------------------------------------------------------------------|
G |----------------------------------------------------------------------|
C |-0-----0-0-------0------0-0-------------------------------------------|X2

Chorus
F |----------------------------------------------------------------------|
C |----------------------------------------------------------------------|
G |--------------------------8-0-7-7-7h8---------------------------------|
C |-8-8-8-8--7-7-7-7-8/0-0-0---------------------------------------------|X2

Verse
F |---------------------------------------------------------------------|
C |---------------------------------------------------------------------|
G |---------------------------------------------------------------------|
C |-7-7-7-7-7-7-7-7-7-7-7-7-12-12-10-10---------------------------------|X2
            
Submit corrections

comments powered by Disqus
↑ Back to top | Confide Bass for Zeal. Lyrics for acoustic guitar and electric guitar. Tablatures and chords are parodies/interpretations of the original songs. You may use it for private study, scholarship, research or language learning purposes only