» » »

Collective Soul, Persasion Of You Tabs (ver.1)

Artists:  A B C D E F G H I J K L M N O P Q R S T U V W X Y Z # 

Persasion Of You Tabs (ver.1)

Collective Soul Tabs
Rating:
0/5 (0 votes)
Persasion Of You lessons Tabs too difficult? Try these video lessons and learn fast
                Collective Soul – Persuasion of You
Tuning: ½ Step Down (EbAbDbGbBbEb)

Intro and Verse 1: (Guitar 1 – Heavy Distortion)
Note:  Guitar 2 enters with verse (5th time) and same chords.
  E       G      Gb    E
|-x-x---x-x---x-x---x-:||
|-x-x---x-x---x-x---x-:||
|-1-1---x-x---x-x---1-:|| x8
|-2-2---5-5---4-4---2-:||
|-2-2---5-5---4-4---2-:||
|-0-0---3-3---2-2---0-:||

Prechorus:
Guitar 1
|---------:||
|-15p14---:||
|-14------:||  x8
|---------:||
|---------:||
|---------:||

Guitar 2
|-xxxxxxxx---x-|
|-xxxxxxxx---x-|
|-xxxxxxxx---1-|
|-77777777---2-|
|-77777777---2-|
|-55555555---0-|

Guitar 1
|---------:||
|-15p14---:||
|-14------:||  x8
|---------:||
|---------:||
|---------:||

Guitar 2
|-xxxxxxxx-|
|-xxxxxxxx-|
|-xxxxxxxx-|
|-77777777-|
|-77777777-|
|-55555555-|

Chorus:
Guitar 1: (listen to song for strum pattern)
|---------------:||
|---------------:||
|-1---x---x---1-:||  x2
|-2---4---7---2-:||
|-2---4---7---2-:||
|-0---2---5---0-:||

Guitar 2:
|------------------:----|
|------------------:----|
|-9---11---14---9-:-----|  x2
|-9---11---14---x-:-----|
|-7---09---12---7-:-----|
|-x---xx---xx---x-:-----|

Pre-Verse and Verse #2

Guitar 1:
E       G      Gb    E
|-x-x---x-x---x-x---x-:||
|-x-x---x-x---x-x---x-:||
|-1-1---x-x---x-x---1-:|| x8
|-2-2---5-5---4-4---2-:||
|-2-2---5-5---4-4---2-:||
|-0-0---3-3---2-2---0-:||

Guitar 2:
|--------------------------:---|
|--------------------------:---|
|-9-9---12-12---11-11---9-:----| x8
|-x-x---xx-xx---xx-xx---x-:----|
|-7-7---10-10---09-09---7-:----|
|-x-x---xx-xx---xx-xx---x-:----|

Chorus:  Same as above.

Solo 1: Guitar 1-
|------------------------------------------|
|-17-16-14-------------17-16-14---14-------|
|----------16-14-13-------------16---16----|
|-------------------14---------------------|
|------------------------------------------|
|------------------------------------------|

Guitar 2 (or use Guitar 1's chords from above):
|------------------:----|
|------------------:----|
|-9---11---14---9-:-----|  x2
|-9---11---14---9-:-----|
|-7---09---12---7-:-----|
|-x---xx---xx---x-:-----|

Guitar 1-
|---------------------------------------------|
|-17-16-14--------------17-16-14--------------|
|----------16-14-13--------------16-13--------|
|-------------------14-----------------14-----|
|---------------------------------------------|
|---------------------------------------------|

Guitar 2:
|------------------:----|
|------------------:----|
|-9---11---14---9-:-----|  x2
|-9---11---14---x-:-----|
|-7---09---12---7-:-----|
|-x---xx---xx---x-:-----|


Guitar 1 (2:01) E-A-E
Guitar 2 (2:01)
|--------------------------------------------|
|--------------------------------------------|
|-9-9-9-9------------------------------------|
|-9-9-9-9-7-7-7-7-22-----22-----22-----22----|
|-7-7-7-7-7-7-7-7-22-----22-----22-----22----|
|---------5-5-5-5-00-000-00-000-00-000-00----|

Guitar 2 (2:09)
|--------------------------------------------|
|--------------------------------------------|
|-9-9-9-9------------------------------------|
|-9-9-9-9-7-7-7-7-22-----22-----22-----22----|
|-7-7-7-7-7-7-7-7-22-----22-----22-----22----|
|---------5-5-5-5-00-000-00-000-00-000-00----|


Guitar 1:  SOLO- (little help here...)
|-----------------------------|
|-15b16--14b15----------------|
|--------------17b18--14~~~~--|
|-----------------------------|
|-----------------------------|
|-----------------------------|


Guitar 2: (2:11)
  E       G      Gb    E
|-x-x---x-x---x-x---x-:||
|-x-x---x-x---x-x---x-:||
|-1-1---x-x---x-x---1-:|| x4
|-2-2---5-5---4-4---2-:||
|-2-2---5-5---4-4---2-:||
|-0-0---3-3---2-2---0-:||

Guitar 1: (2:27)
|---------:||
|-15p14---:||
|-14------:||  x8
|---------:||
|---------:||
|---------:||

Guitar 2
|-xxxxxxxx-|
|-xxxxxxxx-|
|-xxxxxxxx-|
|-77777777-|
|-77777777-|
|-55555555-|

Guitar 1 fill#1 at 2:28
|---------------------------------------|
|---------------------------------------|
|-9~~~~11~~~~12~~~~12b15~~~~Pick Slide--|
|---------------------------------------|
|---------------------------------------|
|---------------------------------------|

Guitar 1 fill#2 at
|----------------------------|
|-16b17b16 Pinch harmonic----|
|----------------------------|
|----------------------------|
|----------------------------|
|----------------------------|

Guitar 2:
|-----------------|
|-----------------|
|-1---------------|
|-2---------------|
|-2-x-x-x-x-x-x-x-|
|-0-0-0-0-0-0-0-0-|

Both Guitars at (2:39) Palm Mute-
|---------------:||
|---------------:||
|-1---x---x---1-:||  x2
|-2---4---7---2-:||
|-2---4---7---2-:||
|-0---2---5---0-:||

I think the rest of the stuff towards the end is tabbed above... except for some leads.
            

comments powered by Disqus
↑ Back to top | Collective Soul Tabs for Persasion Of You. Lyrics for acoustic guitar and electric guitar. Tablatures and chords are parodies/interpretations of the original songs. You may use it for private study, scholarship, research or language learning purposes only