» » »

Perfect Day  Bass tabs (ver.1)

Artists:  A B C D E F G H I J K L M N O P Q R S T U V W X Y Z # 

Perfect Day  Bass tabs (ver.1)

Collective Soul
Rating:
0/5 (0 votes)

Hard to play? Try these video lessons and learn fast.
                Perfect Day by Collective Soul


Verse
   C                 E                 Am                F          G
G :-----------------|-----------------|-----------------|-----------------|
D :-----------------|-----------------|-----------------|-----------------|
A :3-----3-3---3---5|7-----7-7---7---5|----------------3|--------------0-3|
E :-----------------|-----------------|5-----5-5---5----|1-------1--3-----|

Pre-chorus
   D                 G                 D                 F       G
G :-----------------|-----------------|-----------------|-----------------|
D :-----------------|-----------------|-----------------|-----------------|
A :----------------7|5-----5-5---3----|----------------3|-----------------|
E :5-----5-5---7----|----------------3|5-----5-5---7----|1-1-1-1-3-3-3-3--|

Chorus
   C                 G                 F                 F           G
G :-----------------|-----------------|-----------------|-----------------|
D :-----------------|-----------------|-----------------|-----------------|
A :3-----3-3---3----|-----------------|-----------------|--------------0-3|
E :----------------5|3-----3-3---3---0|1-----1-1---1---0|1-----1-1---3----|


This is my first tabbed so pardon my errors
            
Hard to play? Try these video lessons and learn fast. | Correct




comments powered by Disqus
↑ Back to top | Tablatures and chords are parodies/interpretations of the original songs. You may use it for private study, scholarship, research or language learning purposes only