» » »

Cold, No One Tabs (ver.2)

Artists:  A B C D E F G H I J K L M N O P Q R S T U V W X Y Z # 

No One Tabs (ver.2)

Cold Tabs
Rating:
0/5 (0 votes)
No One lessons Tabs too difficult? Try these video lessons and learn fast
                Tuning: Drop-D(D A D G B E)

Intro
use phaser effect, but it still sounds good without it
Guitar 1
E-----------------------------------------
B-----------------------------------------
G-----------------------------------------
D---5 -5--5--6--6---6---6--6----5-5-5-5*--    *=on the last 5 bend down 1/2 a step
A----------------------4--4---3-----------
D-3--3--3--3--3---3---3------3------------

Guitar 2
E--------------------------------------
B--------------------------------------
G--------------------------------------
D-10--------------8-------6----5-5-5-5*
A--------------------------------------
D--------------------------------------

Guitar 2
E--------------------------------------------------------------------
B--------12--12---13----13-------------------------------------------
D-----10---10----10---10--------13--13----13-13-13-------12-12-12-12*
A--------------------------------------11----------10----------------
D--------------------------------------------------------------------

Chorus
E---------------------------------------------------------------------------
B---------------------------------------------------------------------------
G---------------------------------------------------------------------------
D-8------8-8-8-8--x--8--8-x--8---8--6--6--6--6--6--6--x--5--5--5--5--6--6--8
A-8------8-8-8-8--x--8--8-x--8---8--6--6--6--6--6--6--x--5--5--5--5--6--6--8
D-8------8-8-8-8--x--8--8-x--8---8--6--6--6--6--6--6--x--5--5--5--5--6--6--8

Bridge(solo) Guitar 1
E---------------------------------------------------------------------------
B---------------------------------------------------------------------------
G------------------------------------------------------5-5-5---------3----3*
D----3--3--5-------5h6p5----3----------3------5---6-6-6-----6-6-5-5-5-------
A---------------------------------------------------------------------------
D--3--3--3-------------------------3----------------------------------------

Bridge guitar 2
E----------------------------------------------------------------------------
B----------------------------------------------------------------------------
G-----------------------------------------------------5-5-5------------3----3*
D---------------5---------5h6p5---3------3---5---6-6-6------6-6--5-5-5-------
A----------------------------------------------------------------------------
D-3-3-3-3-3-3-3--------3------------3--3-------------------------------------

Chorus X2
E---------------------------------------------------------------------------
B---------------------------------------------------------------------------
G---------------------------------------------------------------------------
D-8------8-8-8-8--x--8--8-x--8---8--6--6--6--6--6--6--x--5--5--5--5--6--6--8
A-8------8-8-8-8--x--8--8-x--8---8--6--6--6--6--6--6--x--5--5--5--5--6--6--8
D-8------8-8-8-8--x--8--8-x--8---8--6--6--6--6--6--6--x--5--5--5--5--6--6--8

Outro
E-----------------------------------------
B-----------------------------------------
G-----------------------------------------
D---5 -5--5--6--6---6---6--6----5-5-5-5*--    
A----------------------4--4---3-----------
D-3--3--3--3--3---3---3------3------------
            

comments powered by Disqus
↑ Back to top | Cold Tabs for No One. Lyrics for acoustic guitar and electric guitar. Tablatures and chords are parodies/interpretations of the original songs. You may use it for private study, scholarship, research or language learning purposes only