» » »

Cold, No One Tabs (ver.6)

Artists:  A B C D E F G H I J K L M N O P Q R S T U V W X Y Z # 

No One Tabs (ver.6)

Cold Tabs
 Rating:
4/5 (4 votes)
No One lessons Tabs too difficult? Try these video lessons and learn fast
1
                Tune down 2 whole steps - C, F, Bb, Eb, G, C, low to high
I left out a few simple riffs that you should be able to figure out by ear.
I'm pretty sure this is 100% correct...I could be wrong though.

b-Bend
/-Slide Up
\-Slide Down

Intro/Main Riff

C --------------------------------------------------------------------------
G --------------------------------------------------------------------------
Eb--------------------------------------------------------------------------
Bb---9---9-----10----10----10-------10-----10--------9-9-9-9b---------------
F -0---0----0------0-----0-----0--8-----8------0-7--------------0-----------
C --------------------------------------------------------------------------


Main Riff 2

C --------------------------------------------------------------------------
G --------------------------------------------------------------------------
Eb--------------------------------------------------------------------------
Bb---14------------12------10---9-9b--9/14----------------------------------
F --------------------------------------------------------------------------
C --------------------------------------------------------------------------


Main Riff 3

C --------------------------------------------------------------------------
G --------------------------------------------------------------------------
Eb------16-----16------17-----17------17--------12------12------11-11-11-11b
Bb---14-----14------14-----14-----14------14\10------10-----10-9------------
F --------------------------------------------------------------------------
C --------------------------------------------------------------------------


Chorus - Guitar 1

C --------------------------------------------------------------------------
G --------------------------------------------------------------------------
Eb-----14-----14------14--14-14-----14--------------------------------------
Bb--14-----14-----14-------------14----14-----------------------------------
F --------------------------------------------------------------------------
C --------------------------------------------------------------------------

Chorus - Guitar 2

C --------------------------------------------------------------------------
G --------------------------------------------------------------------------
Eb--7-7-7-7-7-7-7-7-7--5-5-5-5-5--4-4-4-4/-5/-7-----------------------------
Bb--X-X-X-X-X-X-X-X-X--X-X-X-X-X--X-X-X-X/-X/-X-----------------------------
F --5-5-5-5-5-5-5-5-5--3-3-3-3-3--2-2-2-2/-3/-5-----------------------------
C --------------------------------------------------------------------------
            
Submit corrections

comments powered by Disqus
↑ Back to top | Cold Tabs for No One. Lyrics for acoustic guitar and electric guitar. 1 Tablatures and chords are parodies/interpretations of the original songs. You may use it for private study, scholarship, research or language learning purposes only