» » »

Cold, God's Song Tabs (ver.1)

Artists:  A B C D E F G H I J K L M N O P Q R S T U V W X Y Z # 

God's Song Tabs (ver.1)

Cold Tabs
 Rating:
4/5 (4 votes)
God's Song lessons Tabs too difficult? Try these video lessons and learn fast
                verse
e(--------------------------------------)
b(-----------9-----------------11-------)
g(--11-10-11---11-10--11-10-11----11-10-)
d(--------------------------------------)
a(--------------------------------------)
D(--------------------------------------)

chorus
e(--------------------------------------------------------------)
b(--------------------------------------------------------------)
g(------11---------------------------11-------------------------)
d(--8-8-11-8-8-8-8-4-4-4-4-4-4-4-9-9-11-9-9-9-9-9-9-9-9-9-9-9-9-)
a(--8-8----8-8-8-8-4-4-4-4-4-4-4-9-9----9-9-9-9-9-9-9-9-9-9-9-9-)
D(--8-8----8-8-8-8-4-4-4-4-4-4-4-9-9----9-9-9-9-9-9-9-9-9-9-9-9-)

solo
e(--7/11-7/9-14-14/16-16/18-18/14-------------------------)
b(--------------------------------14/16-14/16-14/16-14/16-)
g(--------------------------------------------------------)
d(--------------------------------------------------------)
a(--------------------------------------------------------)
D(--------------------------------------------------------)

solo continued
e(------------------------18-19-21-18-16-------16----19-)
b(--16-14--------------------------------19-19----19----)
g(--------15-16-16p15/13--------------------------------)
d(------------------------------------------------------)
a(------------------------------------------------------)
D(------------------------------------------------------)

solo continued
e(-----19----19----18-19-18-19-18-19-18-19-18-19------)
b(--19----19----19-------------------------------19/8-)
g(-----------------------------------------------19/8-)
d(----------------------------------------------------)
a(----------------------------------------------------)
D(----------------------------------------------------)
            
Submit corrections

comments powered by Disqus
↑ Back to top | Cold Tabs for God's Song. Lyrics for acoustic guitar and electric guitar. Tablatures and chords are parodies/interpretations of the original songs. You may use it for private study, scholarship, research or language learning purposes only