>
 >
Go Away

Go Away Guitar Tabs

Cold - Go Away chords, tabs, tablatures, lyrics

Guitar lessons | Add/correct | Request | Top 50 tabs Artists:  A B C D E F G H I J K L M N O P Q R S T U V W X Y Z 0-9

Go Away Guitar Tabs – Cold

CD, Sheet music, Poster

Do you like Go Away? Share with your friends now
Bass TabsBass Tabs v2Bass Tabs v3Tabs

tuning - C F Bb Eb G C (two whole steps/4 frets down)




Intro

|---------------------------------------------------|
|-----------------------3(nh)-----------------------|
|---------------------------------------------------|
|---------------------------------------------------|
|-2-2-2-2-2-2-2-2-2-2----------2-2-2-2-2-2-2-2-2-2--|
|-0-0-0-0-0-0-0-0-0-0----------0-0-0-0-0-0-0-0-0-0--|

|---------------------------------------------------|
|---------------------------------------------------|
|---------------------------------------------------|
|---------------------------------------------------|
|-2-2-2-2-2-2-2-2-2-2----------2-2-2-2-2-2-2-2-2-2--|
|-0-0-0-0-0-0-0-0-0-0----------0-0-0-0-0-0-0-0-0-0--|

|---------------------------------------------------|
|-----------------------3(nh)-----------------------|
|---------------------------------------------------|
|---------------------------------------------------|
|-2-2-2-2-2-2-2-2-2-2----------2-2-2-2-2-2-2-2-2-2--|
|-0-0-0-0-0-0-0-0-0-0----------0-0-0-0-0-0-0-0-0-0--|

|---------------------------------------------------|
|---------------------------------------------------|
|---------------------------------------------------|
|---------------------------------------------------|
|-2-2-2-2-2-2-2-2-2-2----------2-2-2-2-2-2-2-2-2-2--|
|-0-0-0-0-0-0-0-0-0-0----------0-0-0-0-0-0-0-0-0-0--|Verse 1

|------------------------------------|---------------------------------|
|------------------------------------|---------------------------------|
|------------------------------------|---------------------------------|
|---------------------------2--------|---------------------------------|
|--------------2---------------------|---------------------------------|
|-0----------------------------------|-0------------3--------2-------2-|

|------------------------------------|---------------------------------|
|------------------------------------|---------------------------------|
|------------------------------------|---------------------------------|
|---------------------------2--------|---------------------------------|
|--------------2---------------------|---------------------------------|
|-0----------------------------------|-0------------3--------2-------2-|


Chorus 1

|------------------------------------------|-----------------------------------------|
|------------------------------------------|-----------------------------------------|
|------------------------------------------|-----------------------------------------|
|-5-5-5-5-5-5-5-5-5-5----------------------|-----------------------------------------|
|-3-3-3-3-3-3-3-3-3-3--5-5-5-5-5-5-5-5-5-5-|-2-2-2-2-2-2-2-2-2-2---2-2-2-2-2-2-2-2-2-|
|----------------------3-3-3-3-3-3-3-3-3-3-|-0-0-0-0-0-0-0-0-0-0---0-0-0-0-0-0-0-0-0-|

|------------------------------------------|-----------------------------------------|
|------------------------------------------|-----------------------------------------|
|------------------------------------------|-----------------------------------------|
|-5-5-5-5-5-5-5-5-5-5----------------------|-----------------------------------------|
|-3-3-3-3-3-3-3-3-3-3--5-5-5-5-5-5-5-5-5-5-|-2-2-2-2-2-2-2-2-2-2---2-2-2-2-2-2-2-2-2-|
|----------------------3-3-3-3-3-3-3-3-3-3-|-0-0-0-0-0-0-0-0-0-0---0-0-0-0-0-0-0-0-0-|

|------------------------------------------|-----------------------------------------|
|------------------------------------------|-----------------------------------------|
|------------------------------------------|-----------------------------------------|
|-5-5-5-5-5-5-5-5-5-5----------------------|-----------------------------------------|
|-3-3-3-3-3-3-3-3-3-3--5-5-5-5-5-5-5-5-5-5-|-2-2-2-2-2-2-2-2-2-2---2-2-2-2-2-2-2-2-2-|
|----------------------3-3-3-3-3-3-3-3-3-3-|-0-0-0-0-0-0-0-0-0-0---0-0-0-0-0-0-0-0-0-|

|------------------------------------------|-----------------------------------------|
|------------------------------------------|-----------------------------------------|
|------------------------------------------|-----------------------------------------|
|-5-5-5-5-5-5-5-5-5-5----------------------|-----------------------------------------|
|-3-3-3-3-3-3-3-3-3-3--5-5-5-5-5-5-5-5-5-5-|-2-2-2-2-2-2-2-2-2-2---2-2-2-2-2-2-2-2-2-|
|----------------------3-3-3-3-3-3-3-3-3-3-|-0-0-0-0-0-0-0-0-0-0---0-0-0-0-0-0-0-0-0-|

|---------------------------------------------------|
|-----------------------3(nh)-----------------------|
|---------------------------------------------------|
|---------------------------------------------------|
|-2-2-2-2-2-2-2-2-2-2----------2-2-2-2-2-2-2-2-2-2--|
|-0-0-0-0-0-0-0-0-0-0----------0-0-0-0-0-0-0-0-0-0--|

|---------------------------------------------------|
|-----------------------3(nh)-----------------------|
|---------------------------------------------------|
|---------------------------------------------------|
|-2-2-2-2-2-2-2-2-2-2----------2-2-2-2-2-2-2-2-2-2--|
|-0-0-0-0-0-0-0-0-0-0----------0-0-0-0-0-0-0-0-0-0--|

|---------------------------------------------------|
|---------------------------------------------------|
|---------------------------------------------------|
|---------------------------------------------------|
|-2-2-2-2-2-2-2-2-2-2----------2-2-2-2-2-2-2-2-2-2--|
|-0-0-0-0-0-0-0-0-0-0----------0-0-0-0-0-0-0-0-0-0--|

|---------------------------------------------------|
|---------------------------------------------------|
|---------------------------------------------------|
|---------------------------------------------------|
|-2-2-2-2-2-2-2-2-2-2----------2-2-2-2-2-2-2-2-2-2--|
|-0-0-0-0-0-0-0-0-0-0----------0-0-0-0-0-0-0-0-0-0--|


verse 2

Gtr 1
|------------------------------------|---------------------------------|
|------------------------------------|---------------------------------|
|------------------------------------|---------------------------------|
|---------------------------2--------|---------------------------------|
|--------------2---------------------|---------------------------------|
|-0----------------------------------|-0------------3--------2-------2-|

Gtr 2
|------------------------------------|---------------------------------|
|---13--13--13--13--13--13-15-13--13-|----12--12--12--12--12--12--12---|
|-16--16--16--16--16--16--------16---|--15--15--15--15--15--15--15--15-|
|------------------------------------|---------------------------------|
|------------------------------------|---------------------------------|
|------------------------------------|---------------------------------|


Gtr 1
|------------------------------------|---------------------------------|
|------------------------------------|---------------------------------|
|------------------------------------|---------------------------------|
|---------------------------2--------|---------------------------------|
|--------------2---------------------|---------------------------------|
|-0----------------------------------|-0------------3--------2-------2-|

Gtr 2
|------------------------------------|---------------------------------|
|---13--13--13--13--13--13-15-13--13-|----12--12--12--12--12--12--12---|
|-16--16--16--16--16--16--------16---|--15--15--15--15--15--15--15--15-|
|------------------------------------|---------------------------------|
|------------------------------------|---------------------------------|
|------------------------------------|---------------------------------|


Chorus 2

|------------------------------------------|-----------------------------------------|
|------------------------------------------|-----------------------------------------|
|------------------------------------------|-----------------------------------------|
|-5-5-5-5-5-5-5-5-5-5----------------------|-----------------------------------------|
|-3-3-3-3-3-3-3-3-3-3--5-5-5-5-5-5-5-5-5-5-|-2-2-2-2-2-2-2-2-2-2---2-2-2-2-2-2-2-2-2-|
|----------------------3-3-3-3-3-3-3-3-3-3-|-0-0-0-0-0-0-0-0-0-0---0-0-0-0-0-0-0-0-0-|

|------------------------------------------|-----------------------------------------|
|------------------------------------------|-----------------------------------------|
|------------------------------------------|-----------------------------------------|
|-5-5-5-5-5-5-5-5-5-5----------------------|-----------------------------------------|
|-3-3-3-3-3-3-3-3-3-3--5-5-5-5-5-5-5-5-5-5-|-2-2-2-2-2-2-2-2-2-2---2-2-2-2-2-2-2-2-2-|
|----------------------3-3-3-3-3-3-3-3-3-3-|-0-0-0-0-0-0-0-0-0-0---0-0-0-0-0-0-0-0-0-|

|------------------------------------------|-----------------------------------------|
|------------------------------------------|-----------------------------------------|
|------------------------------------------|-----------------------------------------|
|-5-5-5-5-5-5-5-5-5-5----------------------|-----------------------------------------|
|-3-3-3-3-3-3-3-3-3-3--5-5-5-5-5-5-5-5-5-5-|-2-2-2-2-2-2-2-2-2-2---2-2-2-2-2-2-2-2-2-|
|----------------------3-3-3-3-3-3-3-3-3-3-|-0-0-0-0-0-0-0-0-0-0---0-0-0-0-0-0-0-0-0-|

|------------------------------------------|-----------------------------------------|
|------------------------------------------|-----------------------------------------|
|------------------------------------------|-----------------------------------------|
|-5-5-5-5-5-5-5-5-5-5----------------------|-----------------------------------------|
|-3-3-3-3-3-3-3-3-3-3--5-5-5-5-5-5-5-5-5-5-|-2-2-2-2-2-2-2-2-2-2---2-2-2-2-2-2-2-2-2-|
|----------------------3-3-3-3-3-3-3-3-3-3-|-0-0-0-0-0-0-0-0-0-0---0-0-0-0-0-0-0-0-0-|


Bridge

Gtr 1
|------------------------|------------------------|--------------------------|--------------------------|
|--3-3-3-3-3-3-3-3-3-x-x-|------------------------|--------------------------|--------------------------|
|--2-2-2-2-2-2-2-2-2-x-x-|--5-5-5-5-5-5-5-5-5-x-x-|--4-4---------------------|--4-4---------------------|
|--0-0-0-0-0-0-0-0-0-x-x-|--5-5-5-5-5-5-5-5-5-x-x-|--4-4-x-5-5-5-5---5-5-5-5-|--4-4-x-5-5-5-5---5-5-5-5-|
|--------------------x-x-|--3-3-3-3-3-3-3-3-3-x-x-|--2-2-x-5-5-5-5---5-5-5-5-|--2-2-x-5-5-5-5---5-5-5-5-|
|------------------------|------------------------|------x-3-3-3-3---3-3-3-3-|------x-3-3-3-3---3-3-3-3-|

Gtr 2 (Play with a slide)
|------------------------|------------------------|--------------------------|--------------------------|
|-15---------------------|--13--------------------|--10-----12---------------|--10-----12---------------|
|------------------------|------------------------|--------------------------|--------------------------|
|------------------------|------------------------|--------------------------|--------------------------|
|------------------------|------------------------|--------------------------|--------------------------|
|------------------------|------------------------|--------------------------|--------------------------|

"For every song.......
Gtr 1
|------------------------|------------------------|--------------------------|--------------------------|
|--3-3-3-3-3-3-3-3-3-x-x-|------------------------|--------------------------|--------------------------|
|--2-2-2-2-2-2-2-2-2-x-x-|--5-5-5-5-5-5-5-5-5-x-x-|--4-4---------------------|--4-4---------------------|
|--0-0-0-0-0-0-0-0-0-x-x-|--5-5-5-5-5-5-5-5-5-x-x-|--4-4-x-5-5-5-5---5-5-5-5-|--4-4-x-5-5-5-5---5-5-5-5-|
|--------------------x-x-|--3-3-3-3-3-3-3-3-3-x-x-|--2-2-x-5-5-5-5---5-5-5-5-|--2-2-x-5-5-5-5---5-5-5-5-|
|------------------------|------------------------|------x-3-3-3-3---3-3-3-3-|------x-3-3-3-3---3-3-3-3-|

Gtr 2
|------------------------|------------------------|--------------------------|--------------------------|
|-15/--------------------|------------------------|--10-----12---------------|--10-----12---------------|
|------------------------|------------------------|--------------------------|--------------------------|
|------------------------|------------------------|--------------------------|--------------------------|
|------------------------|------------------------|--------------------------|--------------------------|
|------------------------|------------------------|--------------------------|--------------------------|

"Every melody.......
Gtr 1
|------------------------|------------------------|--------------------------|--------------------------|
|--3-3-3-3-3-3-3-3-3-x-x-|------------------------|--------------------------|--------------------------|
|--2-2-2-2-2-2-2-2-2-x-x-|--5-5-5-5-5-5-5-5-5-x-x-|--4-4---------------------|--4-4---------------------|
|--0-0-0-0-0-0-0-0-0-x-x-|--5-5-5-5-5-5-5-5-5-x-x-|--4-4-x-5-5-5-5---5-5-5-5-|--4-4-x-5-5-5-5---5-5-5-5-|
|--------------------x-x-|--3-3-3-3-3-3-3-3-3-x-x-|--2-2-x-5-5-5-5---5-5-5-5-|--2-2-x-5-5-5-5---5-5-5-5-|
|------------------------|------------------------|------x-3-3-3-3---3-3-3-3-|------x-3-3-3-3---3-3-3-3-|

Gtr 2
|------------------------|------------------------|--------------------------|--------------------------|
|-15/--------------------|------------------------|--10-----12---------------|--10-----12---------------|
|------------------------|------------------------|--------------------------|--------------------------|
|------------------------|------------------------|--------------------------|--------------------------|
|------------------------|------------------------|--------------------------|--------------------------|
|------------------------|------------------------|--------------------------|--------------------------|

"Every part........
Gtr 1
|------------------------|------------------------|--------------------------|--------------------------|
|--3-3-3-3-3-3-3-3-3-x-x-|------------------------|--------------------------|--------------------------|
|--2-2-2-2-2-2-2-2-2-x-x-|--5-5-5-5-5-5-5-5-5-x-x-|--4-4---------------------|--4-4---------------------|
|--0-0-0-0-0-0-0-0-0-x-x-|--5-5-5-5-5-5-5-5-5-x-x-|--4-4-x-5-5-5-5---5-5-5-5-|--4-4-x-5-5-5-5---5-5-5-5-|
|--------------------x-x-|--3-3-3-3-3-3-3-3-3-x-x-|--2-2-x-5-5-5-5---5-5-5-5-|--2-2-x-5-5-5-5---5-5-5-5-|
|------------------------|------------------------|------x-3-3-3-3---3-3-3-3-|------x-3-3-3-3---3-3-3-3-|

Gtr 2
|------------------------|------------------------|--------------------------|--------------------------|
|-15/--------------------|------------------------|--10-----12---------------|--10-----12---------------|
|------------------------|------------------------|--------------------------|--------------------------|
|------------------------|------------------------|--------------------------|--------------------------|
|------------------------|------------------------|--------------------------|--------------------------|
|------------------------|------------------------|--------------------------|--------------------------|

Gtr 3
|------------------------|------------------------|--------------------------|--------------------------|
|-7-----8-------10-------|-7-----8-------10-------|-7-----8------------------|-7-----8------------------|
|------------------------|------------------------|--------------------------|--------------------------|
|------------------------|------------------------|--------------------------|--------------------------|
|------------------------|------------------------|--------------------------|--------------------------|
|------------------------|------------------------|--------------------------|--------------------------|


"The irony is I'm just like you a pseudo-***ing...... 
Gtr 1
|------------------------|------------------------|
|------------------------|------------------------|
|-4-4--------------------|-4-4--------------------|
|-4-4--5-5-5-5---5-5-5-5-|-4-4--5-5-5-5---5-5-5-5-|
|-2-2--5-5-5-5---5-5-5-5-|-2-2--5-5-5-5---5-5-5-5-|
|------3-3-3-3---3-3-3-3-|------3-3-3-3---3-3-3-3-|

Gtr 2
|------------------------|------------------------|
|-15/--------------------|------------------------|
|------------------------|------------------------|
|------------------------|------------------------|
|------------------------|------------------------|
|------------------------|------------------------|

Gtr 3
|------------------------|------------------------|
|-7-----8-------10-------|-7-----8-------10-------|
|------------------------|------------------------|
|------------------------|------------------------|
|------------------------|------------------------|
|------------------------|------------------------|


...Freak"
|-------------------------|-------------------------|
|-------------------------|-------------------------|
|--4-4--------------------|--4-4--------------------|
|--4-4--5-5-5-5---5-5-5-5-|--4-4--5-5-5-5---5-5-5-5-|
|--2-2--5-5-5-5---5-5-5-5-|--2-2--5-5-5-5---5-5-5-5-|
|-------3-3-3-3---3-3-3-3-|-------3-3-3-3---3-3-3-3-|

|-------------------------|-------------------------|
|-------------------------|-------------------------|
|--4-4--------------------|--4-4--------------------|
|--4-4--5-5-5-5---5-5-5-5-|--4-4--5-5-5-5---5-5-5-5-|
|--2-2--5-5-5-5---5-5-5-5-|--2-2--5-5-5-5---5-5-5-5-|
|-------3-3-3-3---3-3-3-3-|-------3-3-3-3---3-3-3-3-|


Gtr 1
|------------------------------------|---------------------------------|
|------------------------------------|---------------------------------|
|------------------------------------|---------------------------------|
|------------------------------------|---------------------------------|
|-2-2-2-2-2-2-2-----2-2-2-2-2-2-2-2--|-2-2-2-2-2-2-2-----2-2-2-2-2-2-2-|
|-0-0-0-0-0-0-0-----0-0-0-0-0-0-0-0--|-0-0-0-0-0-0-0-----0-0-0-0-0-0-0-|

Gtr 2
|------------------------------------|---------------------------------|
|------------------------------------|---------------------------------|
|------------------------------------|---------------------------------|
|---------------------------2--------|---------------------------------|
|--------------2---------------------|---------------------------------|
|-0----------------------------------|-0------------3--------2-------2-|

Gtr 3
|------------------------------------|---------------------------------|
|---13--13--13--13--13--13-15-13--13-|----12--12--12--12--12--12--12---|
|-16--16--16--16--16--16--------16---|--15--15--15--15--15--15--15--15-|
|------------------------------------|---------------------------------|
|------------------------------------|---------------------------------|
|------------------------------------|---------------------------------|

Outro

|------------------------------------------|-----------------------------------------|
|------------------------------------------|-----------------------------------------|
|------------------------------------------|-----------------------------------------|
|-5-5-5-5-5-5-5-5-5-5----------------------|-----------------------------------------|
|-3-3-3-3-3-3-3-3-3-3--5-5-5-5-5-5-5-5-5-5-|-2-2-2-2-2-2-2-2-2-2---2-2-2-2-2-2-2-2-2-|
|----------------------3-3-3-3-3-3-3-3-3-3-|-0-0-0-0-0-0-0-0-0-0---0-0-0-0-0-0-0-0-0-|

|------------------------------------------|-----------------------------------------|
|------------------------------------------|---------------------3nh-----------------|
|------------------------------------------|-----------------------------------------|
|-5-5-5-5-5-5-5-5-5-5----------------------|-----------------------------------------|
|-3-3-3-3-3-3-3-3-3-3--5-5-5-5-5-5-5-5-5-5-|-2-2-2-2-2-2-2-2-2-2---2-2-2-2-2-2-2-2-2-|
|----------------------3-3-3-3-3-3-3-3-3-3-|-0-0-0-0-0-0-0-0-0-0---0-0-0-0-0-0-0-0-0-|

|------------------------------------------|-----------------------------------------|
|------------------------------------------|-----------------------------------------|
|------------------------------------------|-----------------------------------------|
|-5-5-5-5-5-5-5-5-5-5----------------------|-----------------------------------------|
|-3-3-3-3-3-3-3-3-3-3--5-5-5-5-5-5-5-5-5-5-|-2-2-2-2-2-2-2-2-2-2---2-2-2-2-2-2-2-2-2-|
|----------------------3-3-3-3-3-3-3-3-3-3-|-0-0-0-0-0-0-0-0-0-0---0-0-0-0-0-0-0-0-0-|

|------------------------------------------|-----------------------------------------|
|------------------------------------------|-----------------------------------------|
|------------------------------------------|-----------------------------------------|
|-5-5-5-5-5-5-5-5-5-5----------------------|-----------------------------------------|
|-3-3-3-3-3-3-3-3-3-3--5-5-5-5-5-5-5-5-5-5-|-2-2-2-2-2-2-2-2-2-2---2-2-2-2-2-2-2-2-2-|
|----------------------3-3-3-3-3-3-3-3-3-3-|-0-0-0-0-0-0-0-0-0-0---0-0-0-0-0-0-0-0-0-|

|---------------------------------------------------|
|-----------------------3(nh)-----------------------|
|---------------------------------------------------|
|---------------------------------------------------|
|-2-2-2-2-2-2-2-2-2-2----------2-2-2-2-2-2-2-2-2-2--|
|-0-0-0-0-0-0-0-0-0-0----------0-0-0-0-0-0-0-0-0-0--|

|---------------------------------------------------|
|-----------------------3(nh)-----------------------|
|---------------------------------------------------|
|---------------------------------------------------|
|-2-2-2-2-2-2-2-2-2-2----------2-2-2-2-2-2-2-2-2-2--|
|-0-0-0-0-0-0-0-0-0-0----------0-0-0-0-0-0-0-0-0-0--|





Comments


Popular Cold tabs & chords
Everyone Dies Bass Tabs
Stupid Girl 4 Bass Tabs
Ugly Bass Tabs
Bleed 5 Tabs
Just Got Wicked 4 Tabs
No One Bridge Tabs
Sad Happy 1 Tabs
She Said Tabs
Suffocate 1 Tabs
The Break Tabs


Song lyrics



↑ Back to top | Tablatures and chords are parodies/interpretations of the original songs. You may use it for private study, scholarship, research or language learning purposes only
© 2014 AZChords.com Contact us | Privacy policy | DMCA | Add/correct tabs | Request tabs | Top 50 tabs