» » »

Go Away Bass tabs (ver.3)

Artists:  A B C D E F G H I J K L M N O P Q R S T U V W X Y Z # 

Go Away Bass tabs (ver.3)

Cold
Rating:
0/5 (0 votes)

Hard to play? Try these video lessons and learn fast.
                Cold - Go Away

intro (main riff)
Eb|--------------------------------------|
Bb|--------------------------------------|
F |--------------------------------------|
C |0000-0000-0000-3-3-0000-0000-0000-1-1-|
G |--------------------------------------|

Eb|-------------------------------------|
Bb|-------------------------------------|
F |-------------------------------------|
C |0000-0000-0000-3-3-0000-0000-0000-0h1|
G |-------------------------------------|


verse (x2)
Eb|------------------------------------------------------------------|
Bb|------------------------------------------------------------------|
F |------------------------------------------------------------------|
C |0-000-00-00-3-3-0-000-00-000-1-1-0-000-00-000-3-3-0-000-00-000-1-1|
G |------------------------------------------------------------------|


chorus (x4)
Eb|--------------------------------------------------------------------|
Bb|--------------------------------------------------------------------|
F |3-333-333-3333-33---------------------------------------------------|
C |------------------3-333-333-3333-33-00-00000-0-0-0--00-0000-0-0-00-0|
G |--------------------------------------------------------------------|

**play main riff**
**play verse x2**
**play chorus x4**

bridge (soft part)
Eb|----------------------------------------------------------------|
Bb|----------------------/5----------------------------------------|
F |5-55-55-5-5-5-5--3--3----3-33-333--2-222----------2-222---------|
C |-----------------------------------------3-3-3-33-------3-3-3-33|
G |----------------------------------------------------------------|

Eb|-----------------------------------------------------------------|
Bb|--------5--------------2-2-3-2-0---------------------------------|
F |5-55-55---5-5-5--3--3------------3--2-222----------2-222---------|
C |------------------------------------------3-3-3-33-------3-3-3-33|
G |-----------------------------------------------------------------|

Eb|----------------------------------------------------------------|
Bb|----------------------------------------------------------------|
F |5-55---5-5-5-5-5--3--3-3-3-33-333--2-222----------2-222---------|
C |-----------------------------------------3-3-3-33-------3-3-3-33|
G |-----3----------------------------------------------------------|

Eb|------------------------------------------------------------------|
Bb|-----4-5-4--------------2-2-3-2-0---------------------------------|
F |5-55-------5-5-5--3--3------------3--2-222----------2-222---------|
C |-------------------------------------------3-3-3-33-------3-3-3-33|
G |------------------------------------------------------------------|

Eb|-----------------------------------|
Bb|--------5--------------2-2-3-2-0---|
F |5-55-55---5-5-5--3--3------------3-|
C |-----------------------------------|
G |-----------------------------------|


bridge (heavy part) (x4)
Eb|---------------------|
Bb|---------------------|
F |---------------------|
C |7-----7--------------|
G |0--0-----0---8-8-8-88|


interlude (x2)
Eb|--------------------------------------|
Bb|--------------------------------------|
F |--------------------------------------|
C |0000-0000-0000-0----0000-0000-0000-0--|
G |--------------------------------------|

**play chorus x4**
**play interlude x3**

ending
Eb|----------|
Bb|----------|
F |----------|
C |-(0)h1----|
G |----------|
            
Hard to play? Try these video lessons and learn fast. | Correct




comments powered by Disqus
↑ Back to top | Tablatures and chords are parodies/interpretations of the original songs. You may use it for private study, scholarship, research or language learning purposes only