» » »

Cold, Feel It In Your Heart Tabs (ver.1)

Artists:  A B C D E F G H I J K L M N O P Q R S T U V W X Y Z # 

Feel It In Your Heart Tabs (ver.1)

Cold Tabs
 Rating:
4.2/5 (5 votes)
Feel It In Your Heart lessons Tabs too difficult? Try these video lessons and learn fast
1
                -------------------------------------------------------------------------------
-------------------------------------------------------------------------------

This is not 100% accurate, I guess, but it´s pretty much of what is played.

Tuning: Drop D

Intro and Verse

e|------6-------4-----------------------------8---------------6--------------|
B|----------------------6----------------6--------6---6---6-------6---6------|
G|--6-------6-------6-------6------6-----------------------------------------|
D|---------------------------------------------------------------------------|
A|4---4---4---4---4---4---4---4--4---4/8---8----8---8---8---8---8---8---8\---|
D|---------------------------------------------------------------------------|

e|------6-------4-----------------------------8-------------------6----------|
B|----------------------6----------------6--------6---6---6------------------|
G|--6-------6-------6-------6------6--------------------------8-------8------|
D|---------------------------------------------------------------------------|
A|4---4---4---4---4---4---4---4--4---4/8---8----8---8---8---6---6---6---6\---|
D|---------------------------------------------------------------------------|

Cant run away from love if you cannot feel 
Everything falls apart in a tragedy 
I am so far away from gone 
I just wanna be here 
Everyone forms apart in my symphony 

1st Chorus

     v      v             v      v
e|---------------------------------------------------------------------------|
B|---------------------------------------------------------------------------|
G|---3------6----------------------------------------------------------------|
D|---3------6------1------3------1-------------------------------------------|
A|---1------4------1------3------1-------------------------------------------|
D|-----------------1------3------1-------------------------------------------|

Can you feel this in your heart 
Can you take it to your soul 
I don't want you to pretend 
I don't wanna be alone 

2nd Verse

e|------6-------4-----------------------------8---------------6--------------|
B|----------------------6----------------6--------6---6---6-------6---6------|
G|--6-------6-------6-------6------6-----------------------------------------|
D|---------------------------------------------------------------------------|
A|4---4---4---4---4---4---4---4--4---4/8---8----8---8---8---8---8---8---8\---|
D|---------------------------------------------------------------------------|

e|------6-------4-----------------------------8-------------------6----------|
B|----------------------6----------------6--------6---6---6------------------|
G|--6-------6-------6-------6------6--------------------------8-------8------|
D|---------------------------------------------------------------------------|
A|4---4---4---4---4---4---4---4--4---4/8---8----8---8---8---6---6---6---6\---|
D|---------------------------------------------------------------------------|

Feels like im torn apart 
And I cannot bleed 
Caught in the web you made 
This just can't be real 
I am so far away from gone 
I just wanna be here 
Everyone falls apart in this tragedy 

2nd Chorus

     v      v             v      v
e|---------------------------------------------------------------------------|
B|---------------------------------------------------------------------------|
G|---3------6----------------------------------------------------------------|
D|---3------6------1------3------1-------------------------------------------|
A|---1------4------1------3------1-------------------------------------------|
D|-----------------1------3------1-------------------------------------------|

Can you feel this in your heart 
Can you take it to your soul 
I don't want you to pretend 
I don't wanna be alone 

Bridge

e|----------------------------------------------------------------------------|
B|-----1-------1-------1-------1-------2-------2-------1-------1--------------|
G|---1---1---1---1---0---0---0---0---1---1---1---1---1---1---1---1------------|
D|----------------------------------------------------------------------------|
A|-----------------3-------3-------4-------4-------1-------1------------------|
D|-3-------3------------------------------------------------------------------|

e|----------------------------------------------------------------------------|
B|-----1-------1-------1-------1-------2-------2-------4-------4--------------|
G|---1---1---1---1---0---0---0---0---1---1---1---1---3---3---3---3------------|
D|----------------------------------------------------------------------------|
A|-----------------3-------3-------4-------4-------6-------6------------------|
D|-3-------3------------------------------------------------------------------|

I don't wanna be alone 
Everyday I'll live through this alone
Inside ive changed 
Everyday I'll live through this alone

Final Chorus

     v      v             v      v
e|---------------------------------------------------------------------------|
B|---------------------------------------------------------------------------|
G|---3------6----------------------------------------------------------------|
D|---3------6------1------3------1-------------------------------------------|
A|---1------4------1------3------1-------------------------------------------|
D|-----------------1------3------1-------------------------------------------|

Can you feel this in your heart 
Can you take it to your soul 
I don't want you to pretend 
I don't wanna be alone 

Inside ive changed 
Everyday I'll live through this alone
Inside ive changed 
Everyday I'll live through this alone

Final Riff

e|------6-------4-----------------------------8---------------6--------------|
B|----------------------6----------------6--------6---6---6-------6---6------|
G|--6-------6-------6-------6------6-----------------------------------------|
D|---------------------------------------------------------------------------|
A|4---4---4---4---4---4---4---4--4---4/8---8----8---8---8---8---8---8---8\---|
D|---------------------------------------------------------------------------|

e|------6-------4-----------------------------8-------------------6----------|
B|----------------------6----------------6--------6---6---6------------------|
G|--6-------6-------6-------6------6--------------------------8-------8------|
D|---------------------------------------------------------------------------|
A|4---4---4---4---4---4---4---4--4---4/8---8----8---8---8---6---6---6---6\---|
D|---------------------------------------------------------------------------|
      v
e|----4------------------|
B|----6------------------|
G|----6------------------|
D|----6------------------|
A|-----------------------|
D|-----------------------|

===============================================================================
| /  slide up
| \  slide down
| h  hammer-on
| p  pull-off
| ~  vibrato
| +  harmonic
| x  Mute note
===============================================================================
            
Submit corrections

comments powered by Disqus
↑ Back to top | Cold Tabs for Feel It In Your Heart. Lyrics for acoustic guitar and electric guitar. 1 Tablatures and chords are parodies/interpretations of the original songs. You may use it for private study, scholarship, research or language learning purposes only