» » »

Clap Your Hands Say Yeah, Gimme Some Salt Tabs (ver.2)

Artists:  A B C D E F G H I J K L M N O P Q R S T U V W X Y Z # 

Gimme Some Salt Tabs (ver.2)

Clap Your Hands Say Yeah Tabs
 Rating:
4/5 (5 votes)
Gimme Some Salt lessons Tabs too difficult? Try these video lessons and learn fast
1
                Heavy distortion with palm mutes:
---------------------------------|
---------------------------------|
---------------------------5-5---|
-5-5-5---4-4-4---3-3-3-----5-5---|
-5-5-5---4-4-4---3-3-3---X-3-3-0-|
-3-3-3-0-2-2-2-0-1-1-1-0-X-------|
Repeats


Changes at 1:10
Palm mutes released only at * notes (w/ quick up strum)
---------------------------------|
---------------------------------|
------0*-------------0*----------|
---5-5-------0*---3-3---------0*-|
---5-5----4-4-----3-3--X-10-10---|
-3-3-3--0-2-2---0-1-1--X--8--8---|


Changes at 1:53. Just G, over and over
-3-
-3-
-0-
-0-
-2-
-3-


Changes at 2:14
-3--2--1--2-|
-0--0--1--2-|
-0--0--0--0-|
-0--0--0--0-|
-2--0--0--2-|
-3--2--1--2-|
These chords I'm sure are off, but this is what I'm playing. I will have to look at live 
to work it out.
            
Submit corrections

comments powered by Disqus
↑ Back to top | Clap Your Hands Say Yeah Tabs for Gimme Some Salt. Lyrics for acoustic guitar and electric guitar. 1 Tablatures and chords are parodies/interpretations of the original songs. You may use it for private study, scholarship, research or language learning purposes only