» » »

Clap Your Hands Say Yeah, Gimme Some Salt Tabs (ver.1)

Artists:  A B C D E F G H I J K L M N O P Q R S T U V W X Y Z # 

Gimme Some Salt Tabs (ver.1)

Clap Your Hands Say Yeah Tabs
 Rating:
4/5 (5 votes)
Gimme Some Salt lessons Tabs too difficult? Try these video lessons and learn fast
1
                -----------------------------------------------------------------------------
                             GIMME SOME SALT - Clap You Hands Say Yeah
-----------------------------------------------------------------------------

Just about one of the easiest songs you could play - you can play the chords 
instead of just bass notes but just mix it up to how it sounds best

Tuning: Standard

Intro

e|--------------------------------------------------------------------------|
B|--------------------------------------------------------------------------|
G|--------------------------------------------------------------------------|
D|--------------------------------------------------------------------------|
A|-----------------------------3-5-3----------------------------------------|
E|-3-3-3-3---2-2-2-2--1-1-1-1x----------------------------------------------|


Verse

e|--------------------------------------------------------------------------|
B|--------------------------------------------------------------------------|
G|--------------------------------------------------------------------------|
D|--------------------------------------------------------------------------|
A|--------------------------x--3-3-3-3x-------------------------------------|
E|-3-3-3-3--2-2-2-2--1-1-1-1x---------x-------------------------------------|

repeat


Break (1:54)

e|--------------------------------------------------------------------------|
B|--------------------------------------------------------------------------|
G|--------------------------------------------------------------------------|
D|--------------------------------------------------------------------------|
A|--------------------------------------------------------------------------|
E|-3~--2~--1~-----7~-8~-----------------------------------------------------|

repeat

then back to main riff




| /  slide up
| \  slide down
| h  hammer-on
| p  pull-off
| ~  vibrato
| +  harmonic
| x  Mute note
=============================================================================
            
Submit corrections

comments powered by Disqus
↑ Back to top | Clap Your Hands Say Yeah Tabs for Gimme Some Salt. Lyrics for acoustic guitar and electric guitar. 1 Tablatures and chords are parodies/interpretations of the original songs. You may use it for private study, scholarship, research or language learning purposes only