>
 >
Painting The White To Grey 1

Painting The White To Grey 1 Guitar Tabs

Chimaira - Painting The White To Grey 1 chords, tabs, tablatures, lyrics

Guitar lessons | Add/correct | Request | Top 50 tabs Artists:  A B C D E F G H I J K L M N O P Q R S T U V W X Y Z 0-9

Painting The White To Grey 1 Guitar Tabs – Chimaira

CD, Sheet music, Poster

Do you like Painting The White To Grey 1? Share with your friends now
Bass TabsBass Tabs v2TabsTabs v2Tabs v3
Opening

E---------------------------------------------
B---------------------------------------------
G--------------------------------------------- 3x
D---------------------------------------------
A--4-3-3-4-3---3-3----3--3--------------------
E--4-3-3-4-3---3-3-3----3--------------------

    Heavy riff

E---------------------------------------------
B---------------------------------------------
G---------------------------------------------
D---------------------------------------------
A-------------------------------------1-------
E-0--1--3--0--4--3--1--0--1--3--0--1--1-------





Comments


Popular Chimaira tabs & chords
Eyes Of A Criminal Bass Tabs
Secrets Of The Dead Bass Tabs
Army Of Me 4 Tabs
Down Again 4 Tabs
Empty Tabs
Let Go Tabs
Options Tabs
Painting The White To Grey Tabs
Taste My 1 Tabs
Taste My 2 Tabs


Song lyrics



↑ Back to top | Tablatures and chords are parodies/interpretations of the original songs. You may use it for private study, scholarship, research or language learning purposes only
© 2014 AZChords.com Contact us | Privacy policy | DMCA | Add/correct tabs | Request tabs | Top 50 tabs