» » »

Chimaira, Painting The White To Grey Bass tabs (ver.1)

Artists:  A B C D E F G H I J K L M N O P Q R S T U V W X Y Z # 

Painting The White To Grey Bass tabs (ver.1)

Chimaira Tabs
Rating:
0/5 (0 votes)
Painting The White To Grey lessons Tabs too difficult? Try these video lessons and learn fast
                5-string bass in dropped A

Intro:
----------------------------------------
----------------------------------------
----------------------------------------
----------------------------------------
-333-33333-3-3-3333-333----

Pre-Verse
----------------------------------------
----------------------------------------
----------------------------------------
----------------------------------------
--0-1-3---0-4-3-1-0-0-1-3-0-1-

Bass is silent during the verse


Chorus
-------------------------------------------------
-------------------------------------------------
-------------------------------------------------
-------------------------------------------------
--0--22--0-2-0-2-2-3-0-------------------

Bridge(listen tothe song to get the beat.)
------------------------------------------------
------------------------------------------------
------------------------------------------------
------------------------------------------------
-0h1--0h1--00h1-------------------------

Last Part
-----------------------------------------------
-----------------------------------------------
-----------------------------------------------
-----------------------------------------------
-1p00-1p0-00000-----------------------
            
Submit corrections

comments powered by Disqus
↑ Back to top | Chimaira Bass for Painting The White To Grey. Lyrics for acoustic guitar and electric guitar. Tablatures and chords are parodies/interpretations of the original songs. You may use it for private study, scholarship, research or language learning purposes only