>
 >
Inside The Horror

Inside The Horror Bass Tabs

Chimaira - Inside The Horror chords, tabs, tablatures, lyrics

Guitar lessons | Add/correct | Request | Top 50 tabs Artists:  A B C D E F G H I J K L M N O P Q R S T U V W X Y Z 0-9

Inside The Horror Bass Tabs – Chimaira

CD, Sheet music, Poster

Do you like Inside The Horror? Share with your friends now
Bass TabsBass Tabs v2Tabs
Tuning: CGCF

Note:Numbers like this [3] are optional notes 



|------------------------------|
|------------------------------|x6
|-444444444--------------------|
|------------0-0-0-0-0-0-0-0-0-|
             . . . . . . . . . 

|------------------------------|
|------------------------------|x2
|-333333333--------------------|
|------------0-0-0-0-0-0-0-0-0-|
             . . . . . .   . 

|------------------------------|
|------------------------------|x2
|-444444444--------------------|
|------------0-0-0-0-0-0-0-0-0-|
             . . . . . .   .

|-------------------------------------------------------|
|-------------------------------------------------------|
|-444444444-------------------444444444-----------------|
|-----------0-0---0-0---0-0-------------0-0---0-0---0-0-|
            . .   . .   . .             . .   . .   . .      

|---------------------------------------------------------------|---------|
|---------------------------------------------------------------|---------|
|-444444444-------------------444444444-------------------------|---------|
|-----------0-0---0-0---0-0-------------0-0---1-2-4-1-2-4-1-2-4-|-4\5/4-2-|
            . .   . .   . .             . .   . . . . . . . . .       . .

|---------------------------------------------------|
|---------------------------------------------------|
|---------------------------------------------------|
|-3-3-3---1--4---3-3-3-3-----3-3-3---1--4---3-3-3-3-|
  . . .   .  .   . . . .     . . .   .  .   . . . .

|--------------------------------------------------------------------|
|--------------------------------------------------------------------|
|-----------4-3------------------------------------------------------|
|-0-3-2-0-0-----0--3-3-3---1--4---3-3-3-3-----3-3-3---1--4---3-3-3-3-|
  .     . .     .  . . .   .  .   . . . .     . . .   .  .   . . . .

|---------|
|---------|
|---------|
|-1-2-4-4-|
  . . .

|------|
|------|
|------|
|-x\\\-|

|------------------------------|
|------------------------------|x4
|-444444444--------------------|
|------------0-0-0-0-0-0-0-0-0-|
             . . . . . . . . . 

|------------------------------|
|------------------------------|x2
|-333333333--------------------|
|------------0-0-0-0-0-0-0-0-0-|
             . . . . . .   . 

|------------------------------|
|------------------------------|x2
|-444444444--------------------|
|------------0-0-0-0-0-0-0-0-0-|
             . . . . . .   .

|-------------------------------------------------------|
|-------------------------------------------------------|
|-444444444-------------------444444444-----------------|
|-----------0-0---0-0---0-0-------------0-0---0-0---0-0-|
            . .   . .   . .             . .   . .   . .          

|---------------------------------------------------------------|---------|
|---------------------------------------------------------------|---------|
|-444444444-------------------444444444-------------------------|---------|
|-----------0-0---0-0---0-0-------------0-0---1-2-4-1-2-4-1-2-4-|-4\5/4-2-|
            . .   . .   . .             . .   . . . . . . . . .       . .

|---------------------------------------------------|
|---------------------------------------------------|
|---------------------------------------------------|
|-3-3-3---1--4---3-3-3-3-----3-3-3---1--4---3-3-3-3-|
  . . .   .  .   . . . .     . . .   .  .   . . . .    

|----------------------------------------------------|
|----------------------------------------------------|
|-----------4-3------[8b]----------------------------|
|-0-3-2-0-0-----0-3-------3-4-6--4--3-3-1-3-----3--1-|
  .     . .     .         . .       . . . 

|-------------------------------------------------------|
|-------------------------------------------------------|
|-------------------------------------------------------|
|-3---1-3-4---1--7---4---1-4-3---1-3-4---1--7---4---1-4-|
      . .     .          . .     . .     .          . .

|----------------------------------------------------------------|
|----------------------------------------------------------------|
|----------------------------------------------------------------|
|-33333333-44444444-111-77777777-44444444-33333333-4444-1--7---4-|
  ........ ........ ... ........ ........ ........ .... .

|------------------------------------------|
|------------------------------------------|x2
|------------------------------------------|
|-0--7-6---10-9-6---0-3-5-6-5-2---2--2-1-1-|

|-----------------------------------------|
|-----------------------------------------|
|-----------------------------------------|
|-0--7-6---3-5-6---6--6-8-9-----9-6---8-5-|

|------------------------------------------|
|------------------------------------------|
|------------------------------------------|
|-0--7-6---10-9-6---0-3-5-6-5-2---2--2-1-1-|

|-------|-----------------------------|------------|
|-------|-----------------------------|------------|
|-------|-------------4-3-------------|------------|  x5
|-3-3-3-|-0-03-1-0-0-----0-0-3-3-3-3-|-00--1-2-4--|
  . . .   . .     . .     . . . . . .   ..  . . .                               
        ^             3 times         ^

|-------------------|---------|
|-------------------|---------|
|-------------------|---------|
|-1-2-4-1-2-4-1-2-4-|-4\5/4-2-|
  . . . . . . . . .       . .

|---------------------------------------------------|
|---------------------------------------------------|
|---------------------------------------------------|
|-3-3-3---1--4---3-3-3-3-----3-3-3---1--4---3-3-3-3-|
  . . .   .  .   . . . .     . . .   .  .   . . . .    

|----------------------------------------------------|
|----------------------------------------------------|
|-----------4-3------[8b]----------------------------|
|-0-3-2-0-0-----0-3-------3-4-6--4--3-3-1-3-----3--1-|
  .     . .     .         . .       . . . 

|-------------------------------------------------------|
|-------------------------------------------------------|
|-------------------------------------------------------|
|-3---1-3-4---1--7---4---1-4-3---1-3-4---1--7---4---1-4-|
      . .     .          . .     . .     .          . .

|----------------------------------------------------------------|
|----------------------------------------------------------------|
|----------------------------------------------------------------|
|-33333333-44444444-111-77777777-44444444-33333333-4444-1--7---4-|
  ........ ........ ... ........ ........ ........ .... .

|-------------------|   |---------|
|-------------------|   |---------|
|-------------------|   |---------|
|-1-----1-----1-----|   |-4\5/4-2-|
                              . .
|-------------------|   |---------|
|-------------------|   |---------|
|-------------------|   |---------|
|-1-2-4-1-2-4-1-2-4-|   |-4\5/4-2-|
  . . . . . . . . .           . .

|-------------------|   |---------|
|-------------------|   |---------|x4
|-------------------|   |---------|
|-1-2-4-1-2-4-1-2-4-|   |-4\5/4-2-|
  . . . . . . . . .           . .

|-------------------|   |---------|
|-------------------|   |---------|x2
|-------------------|   |---------|
|-1-2-4-1-2-4-1-2-4-|   |-4\5/4-2-|

|-------------------|   |---------|
|-------------------|   |---------|x8
|-------------------|   |---------|
|-1-2-4-1-2-4-1-2-4-|   |-4\5/4-2-|
  . . . . . . . . .           . .

|------------------------------------|   |---------|
|------------------------------------|   |---------|
|------------------------------------|   |---------|
|-1-2-4-1-2-4---4\5/4-2--1-2-4-1-2-4-|   |-4\5/4-2-|
  . . . . . .       . .  . . . . . .           . .      





Comments


Popular Chimaira tabs & chords
Empire Bass Tabs
Painting The White To Grey Bass Tabs
Pictures In The Gold Room 1 Bass Tabs
Secrets Of The Dead Bass Tabs
Lend A Hand Tabs
No Reason To Live Tabs
On Broken Glass Tabs
Pure Hatred 1 Tabs
Salvation Tabs
Severed 2 Tabs


Song lyrics



↑ Back to top | Tablatures and chords are parodies/interpretations of the original songs. You may use it for private study, scholarship, research or language learning purposes only
© 2014 AZChords.com Contact us | Privacy policy | DMCA | Add/correct tabs | Request tabs | Top 50 tabs