>
 >
Inside The Horror

Inside The Horror Guitar Tabs

Chimaira - Inside The Horror chords, tabs, tablatures, lyrics

Guitar lessons | Add/correct | Request | Top 50 tabs Artists:  A B C D E F G H I J K L M N O P Q R S T U V W X Y Z 0-9

Inside The Horror Guitar Tabs – Chimaira

CD, Sheet music, Poster

Do you like Inside The Horror? Share with your friends now
Bass TabsBass Tabs v2Tabs
TUNING: C G C F A D
      (Top to Bottom)

Simple song.some parts might be off just enjoy and RATE and COMMENT

Intro:Guitar 1 
|------------------------------|
|------------------------------|
|------------------------------|
|------------------------------|x1
|-444444444--------------------|
|------------0-0-0-0-0-0-0-0-0-|
             . . . . . . . . .
Intro:Both Guitars
|------------------------------|
|------------------------------|
|------------------------------|
|------------------------------|x7
|-444444444--------------------|
|------------0-0-0-0-0-0-0-0-0-|
             . . . . . . . . . 
|------------------------------|
|------------------------------|
|------------------------------|
|------------------------------|x2
|-333333333--------------0---0-|
|------------0-0-0-0-0-0-0-0-0-|
             . . . . . .   . 
|------------------------------|
|------------------------------|
|------------------------------|
|------------------------------|x2
|-444444444--------------0---0-|
|------------0-0-0-0-0-0-0-0-0-|
             . . . . . .   .
^Then on the second one above

Guitar 1 does this
|----------------------------------|
|----------------------------------|
|----------------------------------|
|--------------------------3-2-4-3-|
|-444444444----4-3---6-5-----------|
|------------0-----0-----0---------|
             .     .     . 
Guitar 2
|-------------------------------------------------------|
|-------------------------------------------------------|
|-------------------------------------------------------|
|-------------------------------------------------------|
|-444444444-------------------444444444-----------------|
|-----------0-0---0-0---0-0-------------0-0---0-0---0-0-|
            . .   . .   . .             . .   . .   . .          Important
|---------------------------------------------------------------|---------|
|---------------------------------------------------------------|---------|
|---------------------------------------------------------------|---------|
|---------------------------------------------------------------|---------|
|-444444444-------------------444444444-------1-2-4-1-2-4-1-2-4-|-4\5/4-2-|
|-----------0-0---0-0---0-0-------------0-0---1-2-4-1-2-4-1-2-4-|-4\5/4-2-|
            . .   . .   . .             . .   . . . . . . . . .       . .
Guitar 1 to do the harmonics put your finger before the 6 but after the 5 
and have your finger above the fret where the metel is. To pull this off.
Same for the 3 (between the 3 and 4)
|----------------------------------------------------------|
|------------------------------------------(5)-------------|
|------------------------------------------------(3)---(5)-|
|-222222222--------6---4---3/2-222222222-------------------|
|--------------7-------------------------------------------|
|------------0---0---0---0---------------0-----0-----0-----|
             .   .   .   .               .     .     .
|----------------------------------------------------------------|
|----------------------------------------------------------------|
|----------------------------------------------------------------|
|-------------------2--------------------------------------------|
|-444444444---4-3-------6---4/3-444444444------1-2-4-1-2-4-1-2-4-|
|-----------0-----0---0---0---------------0-0--1-2-4-1-2-4-1-2-4-|
            .     .   .   .               . .  . . . . . . . . .
Both Guitars
|---------------------------------------------------|
|---------------------------------------------------|
|---------------------------------------------------|
|---------------------------------------------------|
|-3-3-3---1--4---3-3-3-3-----3-3-3---1--4---3-3-3-3-|
|-3-3-3---1--4---3-3-3-3-----3-3-3---1--4---3-3-3-3-|
  . . .   .  .   . . . .     . . .   .  .   . . . .

|--------------------------------------------------------------------|
|--------------------------------------------------------------------|
|--------------------------------------------------------------------|
|-----------4-3------------------------------------------------------|
|-0-3-2-0-0-4-3-0--3-3-3---1--4---3-3-3-3-----3-3-3---1--4---3-3-3-3-|
|-0-3-2-0-0-----0--3-3-3---1--4---3-3-3-3-----3-3-3---1--4---3-3-3-3-|
  .     . .     .  . . .   .  .   . . . .     . . .   .  .   . . . .

Guitar 1
|---------|
|---------|
|---------|
|---------|
|-1-2-4-4-|
|-1-2-4-4-|
  . . .
Guitar 2
|----------------------------------|
|----------------------------------|
|----------------------------------|
|----------------------------------|
|-1-2-4-4--------------------------|
|-1-2-4-4--0-0-0-0-0-0-0-0-0-0-0-0-|
  . . .    . . . . . . . . . . . . 

Guitar 1
|------|
|------|
|------|
|-x\\\-|
|-x\\\-|
|-x\\\-|

Both Guitars
|------------------------------|
|------------------------------|
|------------------------------|
|------------------------------|x4
|-444444444--------------------|
|------------0-0-0-0-0-0-0-0-0-|
             . . . . . . . . . 
|------------------------------|
|------------------------------|
|------------------------------|
|------------------------------|x2
|-333333333--------------0---0-|
|------------0-0-0-0-0-0-0-0-0-|
             . . . . . .   . 
|------------------------------|
|------------------------------|
|------------------------------|
|------------------------------|x2
|-444444444--------------0---0-|
|------------0-0-0-0-0-0-0-0-0-|
             . . . . . .   .
^Then on the second one above

Guitar 1 does this
|----------------------------------|
|----------------------------------|
|----------------------------------|
|--------------------------3-2-4-3-|
|-444444444----4-3---6-5-----------|
|------------0-----0-----0---------|
             .     .     . 
Guitar 2
|-------------------------------------------------------|
|-------------------------------------------------------|
|-------------------------------------------------------|
|-------------------------------------------------------|
|-444444444-------------------444444444-----------------|
|-----------0-0---0-0---0-0-------------0-0---0-0---0-0-|
            . .   . .   . .             . .   . .   . .          Important
|---------------------------------------------------------------|---------|
|---------------------------------------------------------------|---------|
|---------------------------------------------------------------|---------|
|---------------------------------------------------------------|---------|
|-444444444-------------------444444444-------1-2-4-1-2-4-1-2-4-|-4\5/4-2-|
|-----------0-0---0-0---0-0-------------0-0---1-2-4-1-2-4-1-2-4-|-4\5/4-2-|
            . .   . .   . .             . .   . . . . . . . . .       . .
Guitar 1 to do the harmonics put your finger before the 6 but after the 5 
and have your finger above the fret where the metel is. To pull this off.
Same for the 3 (between the 3 and 4)
|----------------------------------------------------------|
|------------------------------------------(5)-------------|
|------------------------------------------------(3)---(5)-|
|-222222222--------6---4---3/2-222222222-------------------|
|--------------7-------------------------------------------|
|------------0---0---0---0---------------0-----0-----0-----|
             .   .   .   .               .     .     .
|----------------------------------------------------------------|
|----------------------------------------------------------------|
|----------------------------------------------------------------|
|-------------------2--------------------------------------------|
|-444444444---4-3-------6---4/3-444444444------1-2-4-1-2-4-1-2-4-|
|-----------0-----0---0---0---------------0-0--1-2-4-1-2-4-1-2-4-|
            .     .   .   .               . .  . . . . . . . . .
Both Guitars
|---------------------------------------------------|
|---------------------------------------------------|
|---------------------------------------------------|
|---------------------------------------------------|
|-3-3-3---1--4---3-3-3-3-----3-3-3---1--4---3-3-3-3-|
|-3-3-3---1--4---3-3-3-3-----3-3-3---1--4---3-3-3-3-|
  . . .   .  .   . . . .     . . .   .  .   . . . .    
|----------------------------------------------------|
|----------------------------------------------------|
|----------------------------------------------------|
|-----------4-3---3-----------6--4--------3----------|
|-0-3-2-0-0-4-3-0-3---8b--3-4-6--4--3-3-1-3-----3--1-|
|-0-3-2-0-0-----0-3-------3-4-6--4--3-3-1-3-----3--1-|
  .     . .     .         . .       . . . 

Both Guitars
|-------------------------------------------------------|
|-------------------------------------------------------|
|-------------------------------------------------------|
|-3-------4------7---4-------3-------4------7---4-------|
|-3---1-3-4---1--7---4---1-4-3---1-3-4---1--7---4---1-4-|
|-3---1-3-4---1--7---4---1-4-3---1-3-4---1--7---4---1-4-|
      . .     .          . .     . .     .          . .

|----------------------------------------------------------------|
|----------------------------------------------------------------|
|----------------------------------------------------------------|
|----------------------------------------------------------7---4-|
|-------------------------------------------------------1--7---4-|
|-33333333-44444444-111-77777777-44444444-33333333-4444-1--7---4-|
  ........ ........ ... ........ ........ ........ .... .

Guitar 2
|------------------------------------------|
|------------------------------------------|
|------------------------------------------|
|-0--7-6---10-9-6---0-3-5-6-5-2---2--2-1-1-|x2
|-0--7-6---10-9-6---0-3-5-6-5-2---2--2-1-1-|
|-0--7-6---10-9-6---0-3-5-6-5-2---2--2-1-1-|

|-----------------------------------------|
|-----------------------------------------|
|-----------------------------------------|
|-0--7-6---3-5-6---6--6-8-9-----9-6---8-5-|
|-0--7-6---3-5-6---6--6-8-9-----9-6---8-5-|
|-0--7-6---3-5-6---6--6-8-9-----9-6---8-5-|

|------------------------------------------|
|------------------------------------------|
|------------------------------------------|
|-0--7-6---10-9-6---0-3-5-6-5-2---2--2-1-1-|
|-0--7-6---10-9-6---0-3-5-6-5-2---2--2-1-1-|
|-0--7-6---10-9-6---0-3-5-6-5-2---2--2-1-1-|

Guitar 1
|----------------------------------------------|
|----------------------------------------------|
|----9-8---12-118-----5-7-8-7-4---4--4-3-------|
|-0-----------------0--------------------------|x2
|-0--7-6---10-9-6---0-3-5-6-5-2---2--2-1--13/--|
|-0-----------------0---------------------13/--|

|------------------------------------------|
|------------------------------------------|
|----9-8---5-7-8---8--8-1011----118---107/-|
|-0----------------------------------------|
|-0--7-6---3-5-6---6--6-8-9-----9-6---8-5/-|
|-0----------------------------------------|

|----------------------------------------------|
|----------------------------------------------| use tremelo
|----9-8---12-118-----5-7-8-7-4---4--4-3-------| arm to bring note down
|-0-----------------0--------------------------| (or just slide)
|-0--7-6---10-9-6---0-3-5-6-5-2---2--2-1-------|
|-0-----------------0--------------------------|

Guitar 2(this section is repeated 3 times)
|-------|-----------------------------|------------|
|-------|-----------------------------|------------|
|-------|-----------------------------|------------|
|-3-3-3-|-------------4-3-------------|------------|
|-3-3-3-|-0-0-3-1-0-0-4-3-0-0-3-3-3-3-|-----1-2-4--|
|-3-3-3-|-0-03-1-0-0-----0-0-3-3-3-3-|-00--1-2-4--|
  . . .   . .     . .     . . . . . .   ..  . . .                               
those three sections are repeated 5 times 
(before the solo and during the solo)
And then it ends on this..
|-------------------|---------|
|-------------------|---------|
|-------------------|---------|
|-------------------|---------|
|-1-2-4-1-2-4-1-2-4-|-4\5/4-2-|
|-1-2-4-1-2-4-1-2-4-|-4\5/4-2-|
  . . . . . . . . .       . .

Guitar 1 (Solo)
|----------------------------------------------------------|
|----------------------------------------------------------|
|--17--15--13--12-12/13/12-10-12/13/12-10-1213121012101312-|
|15--15--15--15--------------------------------------------|
|----------------------------------------------------------|
|----------------------------------------------------------|

|--------20-18-16-15-16-11-11/13b-----------------------------------|
|18/2021------------------------------------------------------------|
|-------------------------------------------------------------------|
|----------------------------------18151518151518151714141714141714-|
|-------------------------------------------------------------------|
|-------------------------------------------------------------------|

|--------------------------------------------------------------------|
|211818211818212017172017172017--------------------------182021201820|
|-------------------------------------------151515171817-------------|
|-------------------------------151515171817-------------------------|
|--------------------------------------------------------------------|
|--------------------------------------------------------------------|

|----------20b---16-15-16-15-11/13b---------------------------------|
|-------------------------------------1613161316131613161316/18b----|
|171817-17b---------------------------------------------------------|
|-------------------------------------------------------------------|
|-------------------------------------------------------------------|
|-------------------------------------------------------------------|

|-----------------------------------------------20-18-16--20-18-16--|
|16-18-20-21b-20b---16-18-20-23b-21b---16-18-20---------------------|
|-------------------------------------------------------------------|
|-------------------------------------------------------------------|
|-------------------------------------------------------------------|
|-------------------------------------------------------------------|

|20-18-16-15-16-11-11/13b--|
|--------------------------|
|--------------------------|
|--------------------------|
|--------------------------|
|--------------------------|

Both Guitars  
|---------------------------------------------------|
|---------------------------------------------------|
|---------------------------------------------------|
|---------------------------------------------------|
|-3-3-3---1--4---3-3-3-3-----3-3-3---1--4---3-3-3-3-|
|-3-3-3---1--4---3-3-3-3-----3-3-3---1--4---3-3-3-3-|
  . . .   .  .   . . . .     . . .   .  .   . . . .    
|----------------------------------------------------|
|----------------------------------------------------|
|----------------------------------------------------|
|-----------4-3---3-----------6--4--------3----------|
|-0-3-2-0-0-4-3-0-3---8b--3-4-6--4--3-3-1-3-----3--1-|
|-0-3-2-0-0-----0-3-------3-4-6--4--3-3-1-3-----3--1-|
  .     . .     .         . .       . . . 

Both Guitars
|-------------------------------------------------------|
|-------------------------------------------------------|
|-------------------------------------------------------|
|-3-------4------7---4-------3-------4------7---4-------|
|-3---1-3-4---1--7---4---1-4-3---1-3-4---1--7---4---1-4-|
|-3---1-3-4---1--7---4---1-4-3---1-3-4---1--7---4---1-4-|
      . .     .          . .     . .     .          . .

|----------------------------------------------------------------|
|----------------------------------------------------------------|
|----------------------------------------------------------------|
|----------------------------------------------------------7---4-|
|-------------------------------------------------------1--7---4-|
|-33333333-44444444-111-77777777-44444444-33333333-4444-1--7---4-|
  ........ ........ ... ........ ........ ........ .... .
Guitar 2
|-------------------|   |---------|
|-------------------|   |---------|
|-------------------|   |---------|
|-------------------|   |---------|
|-1-2-4-1-2-4-1-2-4-|   |-4\5/4-2-|
|-1-2-4-1-2-4-1-2-4-|   |-4\5/4-2-|
  . . . . . . . . .           . .
Guitar 1
|-------------------|   |---------|
|-------------------|   |---------|
|-------------------|   |---------|
|-1-----1-----1-----|   |---------|
|-1-----1-----1-----|   |-4\5/4-2-|
|-1-----1-----1-----|   |-4\5/4-2-|
                              . .
Both Guitars            Guitar 2
|-------------------|   |---------|
|-------------------|   |---------|
|-------------------|   |---------|
|-------------------|   |---------|
|-1-2-4-1-2-4-1-2-4-|   |-4\5/4-2-|
|-1-2-4-1-2-4-1-2-4-|   |-4\5/4-2-|
  . . . . . . . . .           . .
Both Guitars
|-------------------|   |---------|
|-------------------|   |---------|
|-------------------|   |---------|
|-------------------|   |---------|x4
|-1-2-4-1-2-4-1-2-4-|   |-4\5/4-2-|
|-1-2-4-1-2-4-1-2-4-|   |-4\5/4-2-|
  . . . . . . . . .           . .
Guitar 2 Wah effect on x2 of above
|-------------------|   |---------|
|-------------------|   |---------|
|-------------------|   |---------|
|-------------------|   |---------|x2
|-------------------|   |---------|
|-1-2-4-1-2-4-1-2-4-|   |-4\5/4-2-|

Guitar 2 ends up slowly releasing towards end
|-------------------|   |---------|
|-------------------|   |---------|
|-------------------|   |---------|
|-------------------|   |---------|x8
|-1-2-4-1-2-4-1-2-4-|   |-4\5/4-2-|
|-1-2-4-1-2-4-1-2-4-|   |-4\5/4-2-|
  . . . . . . . . .           . .

Guitar 1
|--------19b-24b-20b-19--18--17--16--15--14-------------------|
|19b-16b---------------17--16--15--14--1312/15b-11b24b/23b--|
|-------------------------------------------------------------|
|-------------------------------------------------------------|
|-------------------------------------------------------------|
|-------------------------------------------------------------|   

Both Guitars                           (Guitar 2) (Guitar 1)
|------------------------------------|   |---------|--------|
|------------------------------------|   |---------|--------|
|------------------------------------|   |---------|--------|
|------------------------------------|   |---------|--------|
|-1-2-4-1-2-4---4\5/4-2--1-2-4-1-2-4-|   |-4\5/4-2-|4\5/4-2-|
|-1-2-4-1-2-4---4\5/4-2--1-2-4-1-2-4-|   |-4\5/4-2-|4\5/4-2-|
  . . . . . .       . .  . . . . . .           . .      . .
And Fades Out...

PLEASE RATE AND COMMENT
                          Thanx This is for ya'll,
                                                  nUmguitarist  





Comments


Popular Chimaira tabs & chords
Dead Inside Drum Tabs
Clayden 1 Tabs
Cleansation Tabs
Dead Inside 2 Tabs
Gag Tabs
Nothing Remains 1 Tabs
Power Trip 1 Tabs
Save Ourselves Tabs
The Dehumanizing Process Tabs
The Dehumanizing Process 2 Tabs


Song lyrics



↑ Back to top | Tablatures and chords are parodies/interpretations of the original songs. You may use it for private study, scholarship, research or language learning purposes only
© 2014 AZChords.com Contact us | Privacy policy | DMCA | Add/correct tabs | Request tabs | Top 50 tabs