>
 >
Empire 1

Empire 1 Guitar Tabs

Chimaira - Empire 1 chords, tabs, tablatures, lyrics

Guitar lessons | Add/correct | Request | Top 50 tabs Artists:  A B C D E F G H I J K L M N O P Q R S T U V W X Y Z 0-9

Empire 1 Guitar Tabs – Chimaira

CD, Sheet music, Poster

Do you like Empire 1? Share with your friends now
Bass TabsTabsTabs v2
-------------------------------------------------------------------------------
                             Empire - Chimaira
-------------------------------------------------------------------------------

Tuning: Drop C

|--------------------------------------------------|
|--------------------------------------------------|
|--------------------------------------------------|
|--------------------------------------------------|
|-5-----------5-----------5-----------5------------|
|---8-7-5-7-8---8-7-5-7-8---8-7-5-7-8---8-7-5-7-8--|

|--------------------------------------------------|
|--------------------------------------------------|
|--------------------------------------------------|
|--------------------------------------------------|
|-4-----------4-----------4-----------4------------|
|---7-6-4-6-7---7-6-4-6-7---7-6-4-6-7---7-6-4-6-7--|

|--------------------------------------------------|
|--------------------------------------------------|
|--------------------------------------------------|
|--------------------------------------------------|
|-5-----------5-----------5-----------5------------|
|---8-7-5-7-8---8-7-5-7-8---8-7-5-7-8---8-7-5-7-8--|

|--------------------------------------------------|
|--------------------------------------------------|
|--------------------------------------------------|
|--------------------------------------------------|
|-4-----------4------------4~~---------------------|
|---7-6-4-6-7---7-6-4-6-7-------------6~~----------|

|--------------------------------------------------|
|--------------------------------------------------|
|--------------------------------------------------|
|--------------------------------------------------|
|-5-----------5-----------5-----------5------------|
|---8-7-5-7-8---8-7-5-7-8---8-7-5-7-8---8-7-5-7-8--|

|--------------------------------------------------|
|--------------------------------------------------|
|--------------------------------------------------|
|--------------------------------------------------|
|-4-----------4------------4br----4-----------4----|
|---7-6-4-6-7---7-6-4-6-7-------7---7-6-4-6-7---7--|
                           *
|--------------------------------------------------|
|--------------------------------------------------|
|--------------------------------------------------|
|--------------------------------------------------|
|-5-----------5-----------5-----------5------------|
|---8-7-5-7-8---8-7-5-7-8---8-7-5-7-8---8-7-5-7-8--|

|--------------------------------------------------|
|--------------------------------------------------|
|--------------------------------------------------|
|--------------------------------------------------|
|-2-----------2-----------1-----------1------------|
|---5-4-2-4-5---5-4-2-4-5---4-3-1-3-4---4-3-1-3-4--|

|--------------------------------------------------|
|--------------------------------------------------|
|--------------------------------------------------|
|--------------------------------------------------|
|-5-----------5-----------5-----------5------------|
|---8-7-5-7-8---8-7-5-7-8---8-7-5-7-8---8-7-5-7-8--|

|--------------------------------------------------|
|--------------------------------------------------|
|--------------------------------------------------|
|--------------------------------------------------|
|-4-----------4------------4br----4-----------4----|
|---7-6-4-6-7---7-6-4-6-7-------7---7-6-4-6-7---7--|
                           *
|--------------------------------------------------|
|--------------------------------------------------|
|--------------------------------------------------|
|--------------------------------------------------|
|-5-----------5------------5br---------5br---------|
|---8-7-5-7-8---8-7-5-7-8------8-7-5-------8-7-5---|
                           *           *
|-----------------------------|
|-----------------------------|
|-----------------------------|
|-----------------------------|
|-2-----------2---------------|
|---5-4-2-4-5---5-4-2-4-5-2---|
 
  (progressively slower)


|------------------------------------------------------------------|
|------------------------------------------------------------------|
|-7-----------7---7-----------7---6-----------6---6-----------6----|
|---8-7-5-7-8---8---8-7-5-7-8---8---7-6-4-6-7---7---7-6-4-6-7---7--|
|------------------------------------------------------------------|
|------------------------------------------------------------------|

|------------------------------------------------------------------|
|------------------------------------------------------------------|
|-7-----------7---7-----------7---6-----------6---6-----------6----|
|---8-7-5-7-8---8---8-7-5-7-8---8---7-6-4-6-7---7---7-6-4-6-7------|
|------------------------------------------------------------------|
|------------------------------------------------------------------|
                                                              *
|------------------------------------------------------------------|
|------------------------------------------------------------------|
|-7-----------7---7-----------7---6-----------6---7788557733552233-|
|---8-7-5-7-8---8---8-7-5-7-8---8---7-6-4-6-7---7------------------|
|------------------------------------------------------------------|
|------------------------------------------------------------------|
                                                  ................
|----------------------------------|
|----------------------------------|
|----------------------------------|
|-----------------------4-------5--| x4
|-6-5-4-0-6-5-4-0-6-5-4-4-6-5-4-5--|
|-6-5-4-0-6-5-4-0-6-5-4---6-5-4----|
  . . . . . . . . . . .   . . .

|------------------------------------------------------------------|
|------------------------------------------------------------------|
|-7-----------7---7-----------7---6-----------6---6-----------6----|
|---8-7-5-7-8---8---8-7-5-7-8---8---7-6-4-6-7---7---7-6-4-6-7------|
|------------------------------------------------------------------|
|------------------------------------------------------------------|
                                                              *
|----------------------------------|
|----------------------------------|
|----------------------------------|
|-----------------------4-------5--| x8
|-6-5-4-0-6-5-4-0-6-5-4-4-6-5-4-5--|
|-6-5-4-0-6-5-4-0-6-5-4---6-5-4----|
  . . . . . . . . . . .   . . .

|--------------------------------------------|
|--------------------------------------------|
|--------------------------------------------|
|---------------------------4------3------2--|
|-6--5--4---6-5-4-3-0---6-5-4--5-4-3--4-3-2--|
|-6--5--4---6-5-4-3-0---6-5----5-4----4-3----|
     .  .   . . . . .   . .    . .    . .
|--------------------------------------------|
|--------------------------------------------|
|--------------------------------------------|
|---------------------------6------5------4--|
|-6--5--4---6-5-4-3-0---6-5-4--5-4-3--4-3-2--|
|-6--5--4---6-5-4-3-0---6-5----5-4----4-3----|
     .  .   . . . . .   . .    . .    . .
|--------------------------------------------|
|--------------------------------------------|
|--------------------------------------------|
|---------------------------4------3------2--|
|-6--5--4---6-5-4-3-0---6-5-4--5-4-3--4-3-2--|
|-6--5--4---6-5-4-3-0---6-5----5-4----4-3----|
     .  .   . . . . .   . .    . .    . .
|--------------------------------------------|
|--------------------------------------------|
|--------------------------------------------|
|---------------------------6------5------4--|
|-6--5--4---6-5-4-3-0---6-5-4--5-4-3--4-3-2--|
|-6--5--4---6-5-4-3-0---6-5----5-4----4-3----|
     .  .   . . . . .   . .    . .    . .

|----------------------------------------------------------------------------|
|----------------------------------------------------------------------------|
|----------------------------------------------------------------------------|
|----------------------------------------------------------------------------| x2
|-6------4-----5h6p5h6-----8h9p8h9-----6------4-----5h6p5h6-----8h9p8h9------|
|-6--55554-0-0---------0-0---------0-0-6--55554-0-0---------0-0---------0-0--|
     ..... . .         . .         . .    ..... . .         . .         . .

|----------------------------------------------------------------------------|
|----------------------------------------------------------------------------|
|----------------------------------------------------------------------------|
|--------------3h4p3h4-----6h7p6h7------------------3h4p3h4-----6h7p6h7------| x2
|-6------4-----------------------------6------4------------------------------|
|-6--55554-0-0---------0-0---------0-0-6--55554-0-0---------0-0---------0-0--|
     ..... . .         . .         . .    ..... . .         . .         . .

|----------------|
|----------------|
|----------------|
|----------------|
|-6------4-------|
|-6--55554-0-0---|
     ..... . .

|------------------------------------------------------------------|
|------------------------------------------------------------------|
|-7-----------7---7-----------7---6-----------6---6-----------6----|
|---8-7-5-7-8---8---8-7-5-7-8---8---7-6-4-6-7---7---7-6-4-6-7------|
|------------------------------------------------------------------|
|------------------------------------------------------------------|
                                                              *
|------------------------------------------------------------------|
|------------------------------------------------------------------|
|-7-----------7---7-----------7---6-----------6---7788557733552233-|
|---8-7-5-7-8---8---8-7-5-7-8---8---7-6-4-6-7---7------------------|
|------------------------------------------------------------------|
|------------------------------------------------------------------|
                                                  ................

|----------------------------------|
|----------------------------------|
|----------------------------------|
|-----------------------4-------5--| x8
|-6-5-4-0-6-5-4-0-6-5-4-4-6-5-4-5--|
|-6-5-4-0-6-5-4-0-6-5-4---6-5-4----|
  . . . . . . . . . . .   . . .

|--------------------------------------------|
|--------------------------------------------|
|--------------------------------------------|
|---------------------------4------3------2--|
|-6--5--4---6-5-4-3-0---6-5-4--5-4-3--4-3-2--|
|-6--5--4---6-5-4-3-0---6-5----5-4----4-3----|
     .  .   . . . . .   . .    . .    . .
|--------------------------------------------|
|--------------------------------------------|
|--------------------------------------------|
|---------------------------6------5------4--|
|-6--5--4---6-5-4-3-0---6-5-4--5-4-3--4-3-2--|
|-6--5--4---6-5-4-3-0---6-5----5-4----4-3----|
     .  .   . . . . .   . .    . .    . .
|--------------------------------------------|
|--------------------------------------------|
|--------------------------------------------|
|---------------------------4------3------2--|
|-6--5--4---6-5-4-3-0---6-5-4--5-4-3--4-3-2--|
|-6--5--4---6-5-4-3-0---6-5----5-4----4-3----|
     .  .   . . . . .   . .    . .    . .
|--------------------------------------------|
|--------------------------------------------|
|--------------------------------------------|
|---------------------------6------5------4--|
|-6--5--4---6-5-4-3-0---6-5-4--5-4-3--4-3-2--|
|-6--5--4---6-5-4-3-0---6-5----5-4----4-3----|
     .  .   . . . . .   . .    . .    . .

|---------------------------------------------------------------------------|
|---------------------------------------10-----------7-8-7h8p7-----8-10-11--|
|-7-----------7---7-----------7---8-7-8----8-7-8-7-8-----------8-7----------|
|---8-7-5-7-8---8---8-7-5-7-8---8-------------------------------------------|
|---------------------------------------------------------------------------|
|---------------------------------------------------------------------------|

|-8-10----8-10-15-14-------18-17-------22------|
|------11------------16-15-------20-19---------|
|------------------------------------------7---|
|----------------------------------------------|
|----------------------------------------------|
|----------------------------------------------|
                                           *
|---------------------1010101088886666888866665555-6\-----|
|-----7777888810101010------------------------------------|
|-7-8-----------------------------------------------------|
|---------------------------------------------------------|
|---------------------------------------------------------|
|---------------------------------------------------------|
                                                   *
  T           T     T           T     T
|---------------------------------------------------|
|-20p15p13h15-20p15-20p15p13h15-20p15-20p15p13h15---|
|---------------------------------------------------|
|---------------------------------------------------|
|---------------------------------------------------|
|---------------------------------------------------|

  T           T           T           T
|---------------------------------------------------|
|-20p15p13h15-------------20p15p13h15---------------|
|-------------19p14p12h14-------------19p14p12h14---|
|---------------------------------------------------|
|---------------------------------------------------|
|---------------------------------------------------|

  T           T     T           T     T
|---------------------------------------------------|
|-19p14p12h14-19p14-19p14p12h14-19p14-19p14p12h14---|
|---------------------------------------------------|
|---------------------------------------------------|
|---------------------------------------------------|
|---------------------------------------------------|

  T           T           T           T
|---------------------------------------------------|
|-19p14p12h14-------------19p14p12h14---------------|
|-------------18p13p11h13-------------18p13p11h13---|
|---------------------------------------------------|
|---------------------------------------------------|
|---------------------------------------------------|

  T           T     T           T     T
|---------------------------------------------------|
|-18p13p11h13-18p13-18p13p11h13-18p13-18p13p11h13---|
|---------------------------------------------------|
|---------------------------------------------------|
|---------------------------------------------------|
|---------------------------------------------------|

  T           T           T           T
|---------------------------------------------------|
|-18p13p11h13-------------18p13p11h13---------------|
|-------------17p12p10h12-------------17p12p10h12---|
|---------------------------------------------------|
|---------------------------------------------------|
|---------------------------------------------------|

  T           T     T           T     T
|---------------------------------------------------|
|-17p12p10h12-17p12-17p12p10h12-17p12-17p12p10h12---|
|---------------------------------------------------|
|---------------------------------------------------|
|---------------------------------------------------|
|---------------------------------------------------|

  T           T          T           T
|--------------------------------------------------|
|-17p12p10h12------------17p12p10h12---------------|
|-------------16p11p9h11-------------16p11p9-h11---|
|--------------------------------------------------|
|--------------------------------------------------|
|--------------------------------------------------|

  T           T     T           T     T
|---------------------------------------------------|
|-17p12p10h12-17p12-17p12p10h12-17p12-17p12p10h12---|
|---------------------------------------------------|
|---------------------------------------------------|
|---------------------------------------------------|
|---------------------------------------------------|

  T           T          T           T
|--------------------------------------------------|
|-17p12p10h12------------17p12p10h12---------------|
|-------------16p11p9h11-------------16p11p9-h11---|
|--------------------------------------------------|
|--------------------------------------------------|
|--------------------------------------------------|

  T           T     T           T     T
|---------------------------------------------------|
|-17p12p10h12-17p12-17p12p10h12-17p12-17p12p10h12---|
|---------------------------------------------------|
|---------------------------------------------------|
|---------------------------------------------------|
|---------------------------------------------------|

  T           T           T           T
|--------------------------------------------|
|-17p12p10h12-17p12p10h12-17p12p10h12-17-----|
|--------------------------------------------|
|--------------------------------------------|
|--------------------------------------------|
|--------------------------------------------|

|---------------------------------------------------------------------------|
|---------------------------------------------------------------------------|
|---------------------------------------------------------------------------|
|------------------------------------------------7-6------------------------|
|-5-----------5---5-----------5---4-----------4--5-4--7-6---4---------------|
|---8-7-5-7-8---8---8-7-5-7-8---8---7-6-4-6-7---------7-6---4---------------|

|---------------------------------------------------------------------------|
|---------------------------------------------------------------------------|
|---------------------------------------------------------------------------|
|---------------------------------------------------------------------------|
|-5-----------5---5-----------5---4-----------4---4-----------4-------------|
|---8-7-5-7-8---8---8-7-5-7-8---8---7-6-4-6-7---7---7-6-4-6-7---7-----------|

|---------------------------------------------------------------------------|
|---------------------------------------------------------------------------|
|---------------------------------------------------------------------------|
|------------------------------------------------7-6------------------------|
|-5-----------5---5-----------5---4-----------4--5-4--7-6---4---------------|
|---8-7-5-7-8---8---8-7-5-7-8---8---7-6-4-6-7---------7-6---4---------------|

|---------------------------------------------------------------------------|
|---------------------------------------------------------------------------|
|---------------------------------------------------------------------------|
|---------------------------------------------------------------------------|
|-5-----------5---5-----------5---4-----------4---4-----------4-------------|
|---8-7-5-7-8---8---8-7-5-7-8---8---7-6-4-6-7---7---7-6-4-6-7---7-----------|

|---------------------------------------------------------------------------|
|---------------------------------------------------------------------------|
|---------------------------------------------------------------------------|
|---------------------------------------------------------------------------|
|-2-----------2---2-----------2---1-----------1---1-----------1-------------|
|---5-4-2-4-5---5---5-4-2-4-5---5---4-3-1-3-4---4---4-3-1-3-4---4-----------|

|---------------------------------------------------------------------------|
|---------------------------------------------------------------------------|
|---------------------------------------------------------------------------|
|---------------------------------------------------------------------------|
|-5-----------5---5-----------5---4-----------4---4-----------4-------------|
|---8-7-5-7-8---8---8-7-5-7-8---8---7-6-4-6-7---7---7-6-4-6-7---7-----------|

|---------------------------------------------------------------------------|
|---------------------------------------------------------------------------|
|---------------------------------------------------------------------------|
|---------------------------------------------------------------------------|
|-7-------------7----7-------------7----6-----------6---6-----------6-------|
|---10-9-7-9-10---10---10-9-7-9-10---10---9-8-6-8-9---9---9-8-6-8-9---9-----|

|------------------------------------------|
|------------------------------------------|
|------------------------------------------|
|-----4-------3-----------6-------5--------|
|-6-5-4---5-4-3---0---6-5-4---5-4-3---0----|
|-6-5-----5-4-----0---6-5-----5-4-----0----|
  . .     . .     .   . .     . .     .

|--------------------------------------------|
|--------------------------------------------|
|--------------------------------------------|
|---------------------------4------3------2--|
|-6--5--4---6-5-4-3-0---6-5-4--5-4-3--4-3-2--|
|-6--5--4---6-5-4-3-0---6-5----5-4----4-3----|
     .  .   . . . . .   . .    . .    . .

|----------------------------------------------------|
|----------------------------------------------------|
|----------------------------------------------------|
|---------------------------6------555-555-44444444--|
|-6--5--4---6-5-4-3-0---6-5-4--5-4-333-333-22222222--|
|-6--5--4---6-5-4-3-0---6-5----5-4-------------------|
     .  .   . . . . .   . .    . . ... ... ........

|--------------------------------------------|
|--------------------------------------------|
|--------------------------------------------|
|---------------------------4------3------2--|
|-6--5--4---6-5-4-3-0---6-5-4--5-4-3--4-3-2--|
|-6--5--4---6-5-4-3-0---6-5----5-4----4-3----|
     .  .   . . . . .   . .    . .    . .

|--------------------------------------------|
|--------------------------------------------|
|--------------------------------------------|
|---------------------------6------5------4--|
|-6--5--4---6-5-4-3-0---6-5-4--5-4-3--4-3-2--|
|-6--5--4---6-5-4-3-0---6-5----5-4----4-3----|
     .  .   . . . . .   . .    . .    . .

|--------------------------------------------|
|--------------------------------------------|
|--------------------------------------------|
|-----6-------5-------4----------------------|
|-6-5-6---5-4-5---4-3-4---1------(1)---------|
|-6-5-6---5-4-5---4-3-4---1------(1)---------|
  . .     . .     . .    

Play until the song fades out
|-----------------------------------|
|-----------------------------------|
|-----------------------------------|
|----------------------3------------|
|-6------4-6-5-4-3--4--3-4--3--2----|
|-6--55554-6-5-4-3--4----4--3--2----|
     ..... . . . .  .    .  .  .


************************************

| .   palm mute
| /   slide up
| \   slide down
| h   hammer-on
| p   pull-off
| ~   vibrato
| *   harmonic
| x   Mute note
| b   Bend
| pb  Pre-bend
| br  Bend release
| pbr Pre-bend release
| brb Bend release bend

************************************





Comments


Popular Chimaira tabs & chords
Empire Bass Tabs
Secrets Of The Dead Bass Tabs
Army Of Me 2 Tabs
Army Of Me 3 Tabs
Army Of Me 4 Tabs
Bloodlust 1 Tabs
I Reject Tabs
Implements Of Destruction Tabs
Lazarus 1 Tabs
Painting The White To Grey Tabs


Song lyrics



↑ Back to top | Tablatures and chords are parodies/interpretations of the original songs. You may use it for private study, scholarship, research or language learning purposes only
© 2014 AZChords.com Contact us | Privacy policy | DMCA | Add/correct tabs | Request tabs | Top 50 tabs