>
 >
Empire

Empire Guitar Tabs

Chimaira - Empire chords, tabs, tablatures, lyrics

Guitar lessons | Add/correct | Request | Top 50 tabs Artists:  A B C D E F G H I J K L M N O P Q R S T U V W X Y Z 0-9

Empire Guitar Tabs – Chimaira

CD, Sheet music, Poster

Do you like Empire? Share with your friends now
Bass TabsTabsTabs v2
Artist - Chimaira
Album - Resurrection
Track - 11
Song - Empire

Tuning - Drop C  CGCFAD


/ - Slide up    \ - Slide down
h - Hammer on   p - Pull off
b - Bend        r - Release
. - Palm Mute   * - Pinch Harmonic
T - Tap

  Guitar 1     x4              x4
D|---------------|---------------|
A|---------------|---------------|
F|---------------|---------------|
C|---------------|---------------|
G|--5------------|--4------------|
C|----8-7-5-7-8--|----7-6-4-6-7--|

  Guitar 2
D|-------------------------------|
A|-------------------------------|
F|-------------------------------|
C|--5---------------4------------|
G|--5---------------4------------|
C|--5---------------4------------|



  Guitar 1     x4             
D|---------------|-----------------------------------|
A|---------------|-----------------------------------|
F|---------------|-----------------------------------|
C|---------------|-----------------------------------|
G|--5------------|--4-----------4-----------4b~------|
C|----8-7-5-7-8--|----7-6-4-6-7---7-6-4-6-7-----6b~--|

  Guitar 2
D|---------------------------------------------------|
A|---------------------------------------------------|
F|---------------------------------------------------|
C|--5---------------4--------------------------------|
G|--5---------------4--------------------------------|
C|--5---------------4--------------------------------|



  Guitar 1     x4             
D|---------------|------------------------------------------------|
A|---------------|------------------------------------------------|
F|---------------|------------------------------------------------|
C|---------------|------------------------------------------------|
G|--5------------|--4-----------4-----------4br--4-----------4----|
C|----8-7-5-7-8--|----7-6-4-6-7---7-6-4-6-7----7---7-6-4-6-7---7--|

  Guitar 2
D|----------------------------------------------------------------|
A|----------------------------------------------------------------|
F|----------------------------------------------------------------|
C|--5---------------4---------------------------------------------|
G|--5---------------4---------------------------------------------|
C|--5---------------4---------------------------------------------|



  Guitar 1     x4             
D|---------------|---------------------------------------------------|
A|---------------|---------------------------------------------------|
F|---------------|---------------------------------------------------|
C|---------------|---------------------------------------------------|
G|--5------------|--2-----------2-----------1-----------1------------|
C|----8-7-5-7-8--|----5-4-2-4-5---5-4-2-4-5---4-3-1-3-4---4-3-1-3-4--|

  Guitar 2
D|-------------------------------------------------------------------|
A|-------------------------------------------------------------------|
F|-------------------------------------------------------------------|
C|--5---------------2-----------------------1------------------------|
G|--5---------------2-----------------------1------------------------|
C|--5---------------2-----------------------1------------------------|



  Guitar 1     x4             
D|---------------|------------------------------------------------|
A|---------------|------------------------------------------------|
F|---------------|------------------------------------------------|
C|---------------|------------------------------------------------|
G|--5------------|--4-----------4-----------4br--4-----------4----|
C|----8-7-5-7-8--|----7-6-4-6-7---7-6-4-6-7----7---7-6-4-6-7---7--|

  Guitar 2
D|----------------------------------------------------------------|
A|----------------------------------------------------------------|
F|----------------------------------------------------------------|
C|--5---------------4---------------------------------------------|
G|--5---------------4---------------------------------------------|
C|--5---------------4---------------------------------------------|



  Guitar 1     x2            x2              x2
D|---------------|-------------|---------------|-----------------------|
A|---------------|-------------|---------------|-----------------------|
F|---------------|-------------|---------------|-----------------------|
C|---------------|-------------|---------------|-----------------------|
G|--5------------|--5br--------|--2------------|--2--------------------|
C|----8-7-5-7-8--|------8-7-5--|----5-4-2-4-5--|-----5--4--2--4--5--2--|

  Guitar 2
D|---------------------------------------------------------------------|
A|---------------------------------------------------------------------|
F|---------------------------------------------------------------------|
C|--5-----------------------------2------------------------------------|
G|--5-----------------------------2------------------------------------|
C|--5-----------------------------2------------------------------------|



  Guitar 1     
D|-------------------------------------------------------------------|
A|-------------------------------------------------------------------|
F|--7-----------7---7-----------7---6-----------6---6-----------6----|
C|----8-7-5-7-8---8---8-7-5-7-8---8---7-6-4-6-7---7---7-6-4-6-7---7--|
G|-------------------------------------------------------------------|
C|-------------------------------------------------------------------|

  Guitar 2
D|-------------------------------------------------------------------|
A|-------------------------------------------------------------------|
F|-------------------------------------------------------------------|
C|--5-----------5---5-----------5---4---------------4----------------|
G|--5-----------5---5-----------5---4---------------4----------------|
C|--5-----------5---5-----------5---4---------------4----------------|



  Guitar 1                                                  *
D|-------------------------------------------------------------------|
A|-------------------------------------------------------------------|
F|--7-----------7---7-----------7---6-----------6---6-------6~-------|
C|----8-7-5-7-8---8---8-7-5-7-8---8---7-6-4-6-7---7---7-6-4----------|
G|-------------------------------------------------------------------|
C|-------------------------------------------------------------------|

  Guitar 2
D|-------------------------------------------------------------------|
A|-------------------------------------------------------------------|
F|-------------------------------------------------------------------|
C|--5-------------------------------4--------------------------------|
G|--5-------------------------------4--------------------------------|
C|--5-------------------------------4--------------------------------|



  Guitar 1
D|-------------------------------------------------------------------|
A|-------------------------------------------------------------------|
F|--7-----------7---7-----------7---6-----------6---778855773355223--|
C|----8-7-5-7-8---8---8-7-5-7-8---8---7-6-4-6-7---7------------------|
G|-------------------------------------------------------------------|
C|-------------------------------------------------------------------|
PM                                                  ...............
  Guitar 2
D|-------------------------------------------------------------------|
A|-------------------------------------------------------------------|
F|-------------------------------------------------------------------|
C|--1-------------------------------4--------------------------------|
G|--1-------------------------------4---------------556633551133001--|
C|--1-------------------------------4--------------------------------|
PM                                                  ...............


D|-----------------------------------|
A|-----------------------------------|
F|-----------------------------------|
C|------------------------4-------5--|
G|--6-5-4-0-6-5-4-0-6-5-4-4-6-5-4-5--|
C|--6-5-4-0-6-5-4-0-6-5-4---6-5-4----|x4
PM  . . . . . . . . . . .   . . . 



  Guitar 1                                                  *
D|-------------------------------------------------------------------|
A|-------------------------------------------------------------------|
F|--7-----------7---7-----------7---6-----------6---6-------6~-------|
C|----8-7-5-7-8---8---8-7-5-7-8---8---7-6-4-6-7---7---7-6-4----------|
G|-------------------------------------------------------------------|
C|-------------------------------------------------------------------|

  Guitar 2
D|-------------------------------------------------------------------|
A|-------------------------------------------------------------------|
F|-------------------------------------------------------------------|
C|--5-------------------------------4--------------------------------|
G|--5-------------------------------4--------------------------------|
C|--5-------------------------------4--------------------------------|



D|-----------------------------------|
A|-----------------------------------|
F|-----------------------------------|
C|------------------------4-------5--|
G|--6-5-4-0-6-5-4-0-6-5-4-4-6-5-4-5--|
C|--6-5-4-0-6-5-4-0-6-5-4---6-5-4----|x8
PM  . . . . . . . . . . .   . . . 



D|------------------------------------------------|
A|------------------------------------------------|
F|------------------------------------------------|
C|-------------------------4--------3--------2----|
G|-/6-5-4---6-5-4-3-0--6-5-4----5-4-3----4-3-2----|
C|-/6-5-4---6-5-4-3-0--6-5------5-4------4-3------|
 |PM  . .   . . . . .  . .      . .      . .
 |
D|------------------------------------------------|
A|------------------------------------------------|
F|------------------------------------------------|
C|-------------------------6--------5--------4----|
G|-/6-5-4---6-5-4-3-0--6-5-4----5-4-3----4-3-2----|
C|-/6-5-4---6-5-4-3-0--6-5------5-4------4-3------|x2
  PM  . .   . . . . .  . .      . .      . .



  Guitar 1
D|-------------------------------------------|
A|-------------------------------------------|
F|-------------------------------------------|
C|-------------------------------------------|
G|--6---55554---0-0-5h6p5h6-0-0-8h9p8h9-0-0--|
C|--6---55554---0-0---------0-0---------0-0--|x8
  PM    ....    . .         . .         . .

  Guitar 2 - This plays over the last 4 times of the above riff.
D|-------------------------------------------|
A|-------------------------------------------|
F|-------------------------------------------|
C|------------------3h4p3h4-----6h7p6h7------|
G|--6---55554---0-0---------0-0---------0-0--|
C|--6---55554---0-0---------0-0---------0-0--|x4
  PM    ....    . .         . .         . .


 
  Guitar 1                                                  *
D|-------------------------------------------------------------------|
A|-------------------------------------------------------------------|
F|--7-----------7---7-----------7---6-----------6---6-------6~-------|
C|----8-7-5-7-8---8---8-7-5-7-8---8---7-6-4-6-7---7---7-6-4----------|
G|-------------------------------------------------------------------|
C|-------------------------------------------------------------------|

  Guitar 2
D|-------------------------------------------------------------------|
A|-------------------------------------------------------------------|
F|-------------------------------------------------------------------|
C|--5-------------------------------4--------------------------------|
G|--5-------------------------------4--------------------------------|
C|--5-------------------------------4--------------------------------|



  Guitar 1
D|-------------------------------------------------------------------|
A|-------------------------------------------------------------------|
F|--7-----------7---7-----------7---6-----------6---778855773355223--|
C|----8-7-5-7-8---8---8-7-5-7-8---8---7-6-4-6-7---7------------------|
G|-------------------------------------------------------------------|
C|-------------------------------------------------------------------|
PM                                                  ...............
  Guitar 2
D|-------------------------------------------------------------------|
A|-------------------------------------------------------------------|
F|-------------------------------------------------------------------|
C|--1-------------------------------4--------------------------------|
G|--1-------------------------------4---------------556633551133001--|
C|--1-------------------------------4--------------------------------|
PM                                                  ...............



D|-----------------------------------|
A|-----------------------------------|
F|-----------------------------------|
C|------------------------4-------5--|
G|--6-5-4-0-6-5-4-0-6-5-4-4-6-5-4-5--|
C|--6-5-4-0-6-5-4-0-6-5-4---6-5-4----|x8
PM  . . . . . . . . . . .   . . . 



D|------------------------------------------------|
A|------------------------------------------------|
F|------------------------------------------------|
C|-------------------------4--------3--------2----|
G|-/6-5-4---6-5-4-3-0--6-5-4----5-4-3----4-3-2----|
C|-/6-5-4---6-5-4-3-0--6-5------5-4------4-3------|
 |PM  . .   . . . . .  . .      . .      . .
 |
D|------------------------------------------------|
A|------------------------------------------------|
F|------------------------------------------------|
C|-------------------------6--------5--------4----|
G|-/6-5-4---6-5-4-3-0--6-5-4----5-4-3----4-3-2----|
C|-/6-5-4---6-5-4-3-0--6-5------5-4------4-3------|x2
  PM  . .   . . . . .  . .      . .      . .



  Guitar 1 (solo)
D|----------------------------------------------------------------------|
A|------------------------------------------10-----------7-8-7h8p7------|
F|--7-----------7---7-----------7---7h8-7-8----8-7-8-7-8-----------8-7--|
C|----8-7-5-7-8---8---8-7-5-7-8---8-------------------------------------|
G|----------------------------------------------------------------------|
C|----------------------------------------------------------------------|

                                                      *
D|----------8-10----8-10-15-14-------18-17-------22\--------------|
A|--8-10-11------11------------16-15-------20-19------------------|
F|----------------------------------------------------7~----------|
C|----------------------------------------------------------------|
G|----------------------------------------------------------------|
C|----------------------------------------------------------------|

                                                  *
D|---------------------101010-888-666-888-666-555-6\--------------|
A|------777-888-101010--------------------------------------------|
F|--7-8-----------------------------------------------------------|
C|----------------------------------------------------------------|
G|----------------------------------------------------------------|
C|----------------------------------------------------------------|

  Tap first note (13th fret) with left hand then the rest of the taps are
  done with the right hand with the edge of the pick.

  I use my middle finger for the 13th fret, pinky for the 15th on A string
  and my index for the 12th and ring finger for the 14th on F string.
  Then it just moves down the fret board.

    T  T           T     T           T     T         
D|------------------------------------------------------|
A|--13-20p13h15p13-20p13-20p13h15p13-20p13-20p13h15p13--|
F|------------------------------------------------------|
C|------------------------------------------------------|
G|------------------------------------------------------|
C|------------------------------------------------------|

    T           T           T           T
D|------------------------------------------------------|
A|--20p13h15p13-------------20p13h15p13-----------------|
F|--------------19p12h14p12-------------19p12h14p12-----|
C|------------------------------------------------------|
G|------------------------------------------------------|
C|------------------------------------------------------|

    T           T     T           T     T         
D|------------------------------------------------------|
A|--19p12h14p12-19p12-19p12h14p12-19p12-19p12h14p12-----|
F|------------------------------------------------------|
C|------------------------------------------------------|
G|------------------------------------------------------|
C|------------------------------------------------------|

    T           T           T           T
D|------------------------------------------------------|
A|--19p12h14p12-------------19p12h14p12-----------------|
F|--------------18p11h13p11-------------18p11h13p11-----|
C|------------------------------------------------------|
G|------------------------------------------------------|
C|------------------------------------------------------|

    T           T     T           T     T         
D|------------------------------------------------------|
A|--18p11h13p11-18p11-18p11h13p11-18p11-18p11h13p11-----|
F|------------------------------------------------------|
C|------------------------------------------------------|
G|------------------------------------------------------|
C|------------------------------------------------------|

    T           T           T           T
D|------------------------------------------------------|
A|--18p11h13p11-------------18p11h13p11-----------------|
F|--------------17p10h12p10-------------17p10h12p10-----|
C|------------------------------------------------------|
G|------------------------------------------------------|
C|------------------------------------------------------|

    T           T     T           T     T         
D|------------------------------------------------------|
A|--17p10h12p10-17p10-17p10h12p10-17p10-17p10h12p10-----|
F|------------------------------------------------------|
C|------------------------------------------------------|
G|------------------------------------------------------|
C|------------------------------------------------------|

    T           T         T           T
D|------------------------------------------------------|
A|--17p10h12p10-----------17p10h12p10-------------------|
F|--------------16p9h11p9-------------16p9h11p9---------|
C|------------------------------------------------------|
G|------------------------------------------------------|
C|------------------------------------------------------|

    T           T     T           T     T         
D|------------------------------------------------------|
A|--17p10h12p10-17p10-17p10h12p10-17p10-17p10h12p10-----|
F|------------------------------------------------------|
C|------------------------------------------------------|
G|------------------------------------------------------|
C|------------------------------------------------------|

    T           T         T           T
D|------------------------------------------------------|
A|--17p10h12p10-----------17p10h12p10-------------------|
F|--------------16p9h11p9-------------16p9h11p9---------|
C|------------------------------------------------------|
G|------------------------------------------------------|
C|------------------------------------------------------|

    T           T     T           T     T         
D|------------------------------------------------------|
A|--17p10h12p10-17p10-17p10h12p10-17p10-17p10h12p10-----|
F|------------------------------------------------------|
C|------------------------------------------------------|
G|------------------------------------------------------|
C|------------------------------------------------------|

    T           T           T           T  
D|------------------------------------------------------|
A|--17p10h12p10-17p10h12p10-17p10h12p10-17--------------|
F|------------------------------------------------------|
C|------------------------------------------------------|
G|------------------------------------------------------|
C|------------------------------------------------------|



  Guitar 2 (under solo)
D|-------------------------------------------|
A|-------------------------------------------|
F|-------------------------------------------|
C|-------------------------------------------|
G|--6---55554---0-0-5h6p5h6-0-0-8h9p8h9-0-0--|
C|--6---55554---0-0---------0-0---------0-0--|x8
  PM    ....    . .         . .         . .

D|---------------------------------------------------|
A|---------------------------------------------------|
F|---------------------------------------------------|
C|---------------------------------------------------|
G|--0-0-5h6p5h6-0-0-8h9p8h9-0-0-5h6p5h6-0-0-8h9p8h9--|
C|--0-0---------0-0---------0-0---------0-0----------|
  PM. .         . .         . .         . .

D|-------------------------------------------|
A|-------------------------------------------|
F|-------------------------------------------|
C|-------------------------------------------|
G|--0-0-55556666888899995555666688889--------|
C|--0-0--------------------------------------|
  PM. . .............................



  Guitar 3 (under solo) - Starts on 5th time of guitar 2
D|-------------------------------------------|
A|-------------------------------------------|
F|-------------------------------------------|
C|------------------3h4p3h4-----6h7p6h7------|
G|--6---55554---0-0---------0-0---------0-0--|
C|--6---55554---0-0---------0-0---------0-0--|x4
  PM    ....    . .         . .         . .

D|---------------------------------------------------|
A|---------------------------------------------------|
F|---------------------------------------------------|
C|------3h4p3h4-----6h7p6h7-----3h4p3h4-----6h7p6h7--|
G|--0-0---------0-0---------0-0---------0-0----------|
C|--0-0---------0-0---------0-0---------0-0----------|
  PM. .         . .         . .         . .

D|-------------------------------------------|
A|-------------------------------------------|
F|-------------------------------------------|
C|------33334444666677773333444466667--------|
G|--0-0--------------------------------------|
C|--0-0--------------------------------------|
  PM. . ..............................




D|-------------------------------------------------------------------|
A|-------------------------------------------------------------------|
F|-------------------------------------------------------------------|
C|------------------------------------------------7-6----------------|
G|--5-----------5---5-----------5---4-----------4-5-4----7-6----4----|
C|----8-7-5-7-8---8---8-7-5-7-8---8---7-6-4-6-7----------7-6----4----|



  Guitar 1
D|-------------------------------------------------------------------|
A|-------------------------------------------------------------------|
F|-------------------------------------------------------------------|
C|-------------------------------------------------------------------|
G|--5-----------5---5-----------5---4-----------4---4-----------4----|
C|----8-7-5-7-8---8---8-7-5-7-8---8---7-6-4-6-7---7---7-6-4-6-7---7--|

  Guitar 2
D|-------------------------------------------------------------------|
A|-------------------------------------------------------------------|
F|-------------------------------------------------------------------|
C|--5-------------------------------4--------------------------------|
G|--5-------------------------------4--------------------------------|
C|--5-------------------------------4--------------------------------|



  Guitar 1
D|-------------------------------------------------------------------|
A|-------------------------------------------------------------------|
F|-------------------------------------------------------------------|
C|------------------------------------------------7-6----------------|
G|--5-----------5---5-----------5---4-----------4-5-4----7-6----4----|
C|----8-7-5-7-8---8---8-7-5-7-8---8---7-6-4-6-7----------7-6----4----|

  Guitar 2
D|-------------------------------------------------------------------|
A|-------------------------------------------------------------------|
F|-------------------------------------------------------------------|
C|--5-------------------------------4-------------7-6----------------|
G|--5-------------------------------4-------------5-4----7-6----4----|
C|--5-------------------------------4--------------------7-6----4----|



  Guitar 1
D|-------------------------------------------------------------------|
A|-------------------------------------------------------------------|
F|-------------------------------------------------------------------|
C|-------------------------------------------------------------------|
G|--5-----------5---5-----------5---4-----------4---4-----------4----|
C|----8-7-5-7-8---8---8-7-5-7-8---8---7-6-4-6-7---7---7-6-4-6-7---7--|

  Guitar 2
D|-------------------------------------------------------------------|
A|-------------------------------------------------------------------|
F|-------------------------------------------------------------------|
C|--5-------------------------------4--------------------------------|
G|--5-------------------------------4--------------------------------|
C|--5-------------------------------4--------------------------------|



  Guitar 1
D|-------------------------------------------------------------------|
A|-------------------------------------------------------------------|
F|-------------------------------------------------------------------|
C|-------------------------------------------------------------------|
G|--2-----------2---2-----------2---1-----------1---1-----------1----|
C|----5-4-2-4-5---5---5-4-2-4-5---5---4-3-1-3-4---4---4-3-1-3-4---4--|

  Guitar 2
D|-------------------------------------------------------------------|
A|-------------------------------------------------------------------|
F|-------------------------------------------------------------------|
C|--2-------------------------------1--------------------------------|
G|--2-------------------------------1--------------------------------|
C|--2-------------------------------1--------------------------------|



  Guitar 1
D|-------------------------------------------------------------------|
A|-------------------------------------------------------------------|
F|-------------------------------------------------------------------|
C|-------------------------------------------------------------------|
G|--5-----------5---5-----------5---4-----------4---4-----------4----|
C|----8-7-5-7-8---8---8-7-5-7-8---8---7-6-4-6-7---7---7-6-4-6-7---7--|

  Guitar 2
D|-------------------------------------------------------------------|
A|-------------------------------------------------------------------|
F|-------------------------------------------------------------------|
C|--5-------------------------------4--------------------------------|
G|--5-------------------------------4--------------------------------|
C|--5-------------------------------4--------------------------------|



  Guitar 1
D|-------------------------------------------------------------------------|
A|-------------------------------------------------------------------------|
F|-------------------------------------------------------------------------|
C|-------------------------------------------------------------------------|
G|--7-------------7----7-------------7----6-----------6---6-----------6----|
C|----10-9-7-9-10---10---10-9-7-9-10---10---9-8-6-8-9---9---9-8-6-8-9---9--|

  Guitar 2
D|-------------------------------------------------------------------------|
A|-------------------------------------------------------------------------|
F|-------------------------------------------------------------------------|
C|--7-------------------------------------6--------------------------------|
G|--7-------------------------------------6--------------------------------|
C|--7-------------------------------------6--------------------------------|



D|-------------------------------------------------|
A|-------------------------------------------------|
F|-------------------------------------------------|
C|-------4--------3-------------6--------5---------|
G|---6-5-4----5-4-3----0----6-5-4----5-4-3----0----|
C|---6-5------5-4------0----6-5------5-4------0----|
  PM . .      . .      .    . .      . .      .



D|------------------------------------------------|
A|------------------------------------------------|
F|------------------------------------------------|
C|-------------------------4--------3--------2----|
G|-/6-5-4---6-5-4-3-0--6-5-4----5-4-3----4-3-2----|
C|-/6-5-4---6-5-4-3-0--6-5------5-4------4-3------|
 |PM  . .   . . . . .  . .      . .      . .
 |
D|----------------------------------------------------|
A|----------------------------------------------------|
F|----------------------------------------------------|
C|-------------------------6--------555-555-44444444--|
G|-/6-5-4---6-5-4-3-0--6-5-4----5-4-333-333-22222222--|
C|-/6-5-4---6-5-4-3-0--6-5------5-4-------------------|
  PM  . .   . . . . .  . .      . . ... ... ........



D|------------------------------------------------|
A|------------------------------------------------|
F|------------------------------------------------|
C|-------------------------4--------3--------2----|
G|-/6-5-4---6-5-4-3-0--6-5-4----5-4-3----4-3-2----|
C|-/6-5-4---6-5-4-3-0--6-5------5-4------4-3------|
 |PM  . .   . . . . .  . .      . .      . .
 |
D|-------------------------------------------------------------------------|
A|-------------------------------------------------------------------------|
F|-------------------------------------------------------------------------|
C|-------------------------6--------5--------4--------6--------5--------4--|
G|-/6-5-4---6-5-4-3-0--6-5-4----5-4-3----4-3-2----6-5-6----5-4-5----4-3-4--|
C|-/6-5-4---6-5-4-3-0--6-5------5-4------4-3------6-5-6----5-4-5----4-3-4--|
  PM  . .   . . . . .  . .      . .      . .      . .      . .      . .



D|-----------------------------------------|
A|-----------------------------------------|
F|-----------------------------------------|
C|--1--------------------------------------|
G|--1--------------------------------------|
C|--1--------------------------------18\---|



 Play until fade out.  It's about 18 times until you can't hear it anymore.
D|-----------------------------------------|
A|-----------------------------------------|
F|-----------------------------------------|
C|------------------------3----------------|
G|--6---55554-6-5-4-3--4--3--4--3--2-------|
C|--6---55554-6-5-4-3--4-----4--3--2-------|x18
PM      ..... . . . .  .     .  .  .





Comments


Popular Chimaira tabs & chords
Painting The White To Grey 2 Bass Tabs
Pray For All Bass Tabs
Save Ourselves Bass Tabs
Taste My.. Bass Tabs
Clayden 1 Tabs
Down Again 1 Tabs
Impossibility Of Reason Tabs
Painting The White To Grey 1 Tabs
Pleasure In Pain Tabs
The Dehumanizing Process Intro Tabs


Song lyrics



↑ Back to top | Tablatures and chords are parodies/interpretations of the original songs. You may use it for private study, scholarship, research or language learning purposes only
© 2014 AZChords.com Contact us | Privacy policy | DMCA | Add/correct tabs | Request tabs | Top 50 tabs