» » »

Divination Tabs (ver.1)

Artists:  A B C D E F G H I J K L M N O P Q R S T U V W X Y Z # 

Divination Tabs (ver.1)

Chimaira
Rating:
4/5 (1 vote)

Hard to play? Try these video lessons and learn fast.
                
Chimaira - Divination
7string guitar tuned to drop a

*=harmonic
^=pinch harmonic
b=bend

palm mute second part
||-----------------------------------------------------------||
||-----------------------------------------------------------||
||-----------------------------------------------------------||
||-2-2------2-2----------------------------------------------||
||-1-1------1-1----------------------------------------------||
||--------------------0----4-3-0----1-1--2-2-----------------||
||--------0-----------0----4-3-0----1-1--2-2-----------------||



||------------------------------------------------------------||
||------------------------------------------------------------||
||------------------------------------------------------------||
||-2-2-------2--2---------------------------------------------||
||-1-1-------1--1------------5*-------------------------------||
||-----------------------------------5*-------5*--------------||
||--------0---------0-0-0--------------5*---------------------||



||----------------------------------------------------||
||---------------------------------9------------------||
||----------------------------------------------------||
||-2-2------2--2----------------7---------------------||
||-1-1------1--1--------------------------------------||
||----------------------------------------------------||
||--------0---------0-0-0-----------------------------||



||-------------------------------------------------------------------||
||-------------------------------------------------------------------||
||-------------------------------------------------------------------||
||-------------------------------------------------------------------||
||-------------------------------------------------------------------||
||--0-0---2-1---0-1-0------------4-----------0-0-3-2-----------------||
||--0-0---2-1---0-1-0--0-0-0---------6-5-----0-0-3-2---/////////-----||


||------------------------------------------------------------------------------||
||------------------------------------------------------------------------------||
||------------------------------------------------------------------------------||
||------------------------------------------------------------------------------||
||------------------------------------------------------------------------------||
||--0-0--2-1--0-1-0--------------4----------0-0-3-2--0-1---1-0---0---0----------||
||--0-0--2-1--0-1-0--0-0-0----------6-5-----0-0-3-2--0-1---1-0---0---0----------||




||-----------------------------7----------------------------7--------------||
||-----------------------------11---------------------------11-------------||
||-------------------------------------------------------------------------||
||-------------------------------------------------------------------------||
||-------------------------------------------------------------------------||
||-------------------------------------------------------------------------||
||----0-0-0-0--0-0-0-0-------------0-0-0-0-0-0-0---------------------------||



||-------------------------------------------------------------------------||
||-------------------------------------------------------------------------||
||-------------------------------------------------------------------------||
||-------------------------------------------------------------------------||
||--10----------------------1--------------------------0-------------------||
||--10----------------------1--------------------------0-------------------||
||--10----------------------1--------------------------0-------------------||



||--------------------------------------------------------------------------||
||--------------------------------------------------------------------------||
||--------------------------------------------------------------------------||
||--------------------------------------------------------------------------||
||--------------------------------------------------------------------------||
||----------------------------------------------3^b--3^b--------------------||
||---0-2-1--0-2-1--0-2-1--0-2-1-0-------------------------------------------||





||--------------------------------------------------------------------------||
||--------------------------------------------------------------------------||
||--------------------------------------------------------------------------||
||--------------------------------------------------------------------------||
||--------------------------------------------------------------------------|| 
||--------------------------------------------------------------------------||
||----0-2-1--0-2-1--0-2-1--0-2-1--------3^b---------------------------------||




||----------------------------------------------------------------------------||
||----------------------------------------------------------------------------||
||----------------------------------------------------------------------------||
||----------------------------------------------------------------------------||
||----------------------------------------------------------------------------||
||--0--2-1---0-2-1--0-1-----0-2-1---0--2-1-0-1--------------------------------||
||--0--2-1---0-2-1--0-1-----0-2-1---0--2-1-0-1--------------------------------||




||----------------7-----------7-----------------------------------------------||
||---------------11----------11-----------------------------------------------||
||----------------------------------------------------------------------------||
||----------------------------------------------------------------------------||
||----------------------------------------------------------------------------||
||----------0-------------0---------------------------------------------------||
||----------0-------------0---------------------------------------------------||


||----------------------------------------------------------------------------||
||----------------------------------------------------------------------------||
||----------------------------------------------------------------------------||
||----------------------------------------------------------------------------||
||----------------------------------------------------------------------------||
||--2/1--0--0-0-0-----------------------2/1-0--1---1---1----------------------||
||--2/1--0--0-0-0-----------------------2/1-0--1---1---1----------------------||
            
Hard to play? Try these video lessons and learn fast. | Correct




comments powered by Disqus
↑ Back to top | Tablatures and chords are parodies/interpretations of the original songs. You may use it for private study, scholarship, research or language learning purposes only