» » »

Divination Tabs (ver.2)

Artists:  A B C D E F G H I J K L M N O P Q R S T U V W X Y Z # 

Divination Tabs (ver.2)

Chimaira
Rating:
0/5 (0 votes)

Hard to play? Try these video lessons and learn fast.
                Tuning: A,E,A,D,g,b,e
Key:   <#> = harmonic    ^ = bend
        *  = palm mute   x = muted string     
        / = slide        ~ = ring out
        h = hammer-on  <#^>= pinch harmonic
        p = pull-off    x/==> pick scr*pe/ slide up or down neck

I tabbed out all of the different parts to this song. You can figure
out the order. Listen to the album for rythm and so on. I must say 
Chimaira is one of my favorite bands. 
              

|-----------------------------------------|
|-----------------------------------------|
|-----------------------------------------|
|-2-2------2-2----------------------------|
|-1-1------1-1----------------------------|
|-----------------0----4-2-0----1-1--2-2--|
|--------0--------0----4-2-0----1-1--2-2--|


|-------------------------------------------|
|-------------------------------------------|
|-------------------------------------------|
|-2-2-------2--2----------------------------|
|-1-1-------1--1------------<5>-------------|
|-0-0-------0--0---------------<5>--<4.5>---|
|--------0---------0-0-0---------<5>--------|
                   * * *

|---------------------------------|
|---------------------------------|
|------------------------------0~-|
|-2-2------2--2------------7~-----|
|-1-1------1--1-------------------|
|-0-0------0--0-------------------|
|--------0--------0-0-0-----------|
                  * * *


|----------------------------------------------------------------|
|----------------------------------------------------------------|
|----------------------------------------------------------------|
|----------------------------------------------------------------|
|----------------------------------------------------------------|
|--0-0---2/1--0-1-0-----------4---------0-0-3-2-(2)--------------|
|--0-0---2/1--0-1-0--0-0-0-------6-5----0-0-3-2--(2)x\\=======>--|


|------------------------------------------------------------------|
|------------------------------------------------------------------|
|------------------------------------------------------------------|
|------------------------------------------------------------------|
|------------------------------------------------------------------|
|--0-0--2-1--0-1-0------------4---------0-0-3-2--0-1--1-0--0---0---|
|--0-0--2-1--0-1-0--0-0-0--------6-5----0-0-3-2--0-1--1-0--0---0---|


|---------------------------------------------------|
|----------------------11---------------------11^---|
|----------------------14---------------------14^---|
|---------------------------------------------------|
|---------------------------------------------------|
|---------------------------------------------------|
|--0-0-0-0-0-0-0-0-----------0-0-0-0-0-0-0-0--------|
   * * * * * * * *           * * * * * * * * 


|---------------------------------------------------|
|---------------------------------------------------|
|---------------------------------------------------|
|---------------------------------------------------|
|--10~-----------------1~---------------0~----------|
|--10~-----------------1~---------------0~----------|
|--10~-----------------1~---------------0~----------|


|-----------------------------|-----------------|-----------|
|-----------------------------|-----------------|-----------|
|-----------------------------|-----------------|-----------|
|-----------------------------|-----------------|-----------|
|-----------------------------|-----------------|-----------|
|-----------------------------|------<3^>-<3^>--|-----------|
|--0-2-1--0-2-1--0-2-1--0-2-1-|-0---------------|---<3^>----|


|--------------------------------------------|
|--------------------------------------------|
|--------------------------------------------|
|--------------------------------------------|
|--------------------------------------------|
|--0-2-1--0-2-1--0h1----0-2-1---0--2-1-0-1---|
|--0-2-1--0-2-1--0h1----0-2-1---0--2-1-0-1---|


|-------------------------|
|--------11----------11---|
|--------14----------14---|
|-------------------------|
|-------------------------|
|---0-----------0-0-------|
|---0-----------0-0-------|
    *           * *

|----------------------------------------|-----|
|----------------------------------------|-----|
|----------------------------------------|-----|
|----------------------------------------|-----|
|----------------------------------------|--2--|
|--2/1--0--0-0-0----2/1-0--1---1---1--0--|--0--|
|--2/1--0--0-0-0----2/1-0--1---1---1--0--|--0--|
            
Hard to play? Try these video lessons and learn fast. | Correct




comments powered by Disqus
↑ Back to top | Tablatures and chords are parodies/interpretations of the original songs. You may use it for private study, scholarship, research or language learning purposes only