>
 >
Deadnight Warrior

Deadnight Warrior Guitar Tabs

Children Of Bodom - Deadnight Warrior chords, tabs, tablatures, lyrics

Guitar lessons | Add/correct | Request | Top 50 tabs Artists:  A B C D E F G H I J K L M N O P Q R S T U V W X Y Z 0-9

Deadnight Warrior Guitar Tabs – Children Of Bodom

CD, Sheet music, Poster

Do you like Deadnight Warrior? Share with your friends now
Bass TabsTabsTabs v2Tabs v3
Version 1.0 - October 1998

NOTES:
Tuning: Tune down one whole step (1:D, 2:G, 3:C, 4:F, 5:A, 6:D)

Timing: Listen to music for actual timing...

Notation: When two guitars are listed play all guitars simultaneously.
          ~ = vibrate 	        \ = slide down
          h = hammer-on         / = slide up
          p = pull-off           = pick scrape
	  t = tapping		. = palm mute



Hi ho, here's my bad effort to transcribe the masterpiece "Deadnight
Warrior". I only tabbed the main guitar, as I was too lazy writing down
rhythm stuff. I'll do that later. Anyways please send me your comments...
and corrections, as this piece is not too correct...

RIFF A
|-----|---------------------------------------------------------------------
|-----|---------------------------------------------------------------------
|-7-9-|-9-88-9---------7-9-9-88-9-------------------------------------------
|-7-9-|-9-88-9---------7-9-9-88-9--5-------2--------------------------------
|-5-7-|-7----7-------0-5-7-7----7----7-----2--------------------------------
|-----|--------0-2-3-.-----------------6~--0--------------------------------
               . . .
Play 4 times


SOLO 1
|-0/12\-|-----------------------------------15----19--24--------------------
|-------|---------------12------------17------17----20--24------------------
|-------|-------12----12--12------14----16------16--------242321------------
|-------|-14------14--------14--14--17----17--------------------242221------
|-------|---14------14--------14--------------------------------------------
|-------|-----15------------------------------------------------------------

|---------------------------------------------------------------------------
|---------------------------------------------------------------------------
|----------121112912--12--12------7h9h11-----------------17p16p14-16h17h19--
|-10p9p7h10---------12--10--7h9h10------17p16p14-16h17h19-------------------
|---------------------------------------------------------------------------
|---------------------------------------------------------------------------

|---------17h19h20-22p20p19-------------------------------------------------
|-17h19h20-----------------22p20p19\14-15~----------------------------------
|---------------------------------------------------------------------------
|---------------------------------------------------------------------------
|---------------------------------------------------------------------------
|---------------------------------------------------------------------------

RIFF B
|---------------------------------------------------------------------------
|---------------------------------------------------------------------------
|---------------------------------7-----------------------------------------
|-10\9-9999-10\9-9999-10\9-9999-5-7-10\9-9999-10\9-9999---------------------
|-7----7777-7----7777-7----7777-5-5-7----7777-7----7777-5-0-2---------------
|------....------....------....-3--------....------....-3-2-0---------------

RIFF Ca
|---------------------------------------------------------------------------
|---------------------------------------------------------------------------
|---------------------------------------------------------------------------
|-----------5-----4-----------7-----2---------------------------------------
|-2---------7-----5-2---------5-----3---------------------------------------
|-0--000000---000---0--000000---000-----------------------------------------
     ......   ...      ......   ...
Play 2 times


RIFF Cb
|---------------------------------------------------------------------------
|---------------------------------------------------------------------------
|---------------------------------------------------------------------------
|-----------7-----------4-----------5-----2-----2---------------------------
|-2---------5-----------5-----------7-----3-----0---------------------------
|-0--000000---000000000---000000000---000---000-----------------------------
     ......   .........   .........   ...   ...
Play 2 times


RIFF D
|---------------------------------------------------------------------------
|---------------------------------------------------------------------------
|---------------------------------------------------------------------------
|-------------------------222222222222222222222222-10-10101010-10--10-------
|-111111111111111111111111........................----.-.-.-.---------------
|-........................--------------------------------------------------

|---------------------------------------------------------------------------
|--------------------------------10~----------------------------------------
|-----------------999999999121212-------9-----------------------------------
|-9-9999-9--121212..........-.-.-----------12-10-9--10-9--------------------
|---....----.-.-.-----------------------------------------------------------
|---------------------------------------------------------------------------

RIFF E
|-----|----------------------------------------------------------------------|
|-----|--Last-time-end-with--------------------------------------------------|
|-22--|----------------------------------------------------------------------|
|-22--|----------------------------------------------------------------------|
|-00--|---\-----------------------------------------------------------------|
|-..--|---\\----------------------------------------------------------------|
Play 4 times

RIFF Fa
GUITAR ONE
|---------------------------------------------------------------------------
|---------------------------------------------------------------------------
|---------------------------------------------------------------------------
|---------------------------------------------------------------------------
|-0-0-0-0-0-0-0-0-3-3-3-3-2-2-2-2-------------------------------------------
|-.-.-.-.-.-.-.-.-.-.-.-.-.-.-.-.-------------------------------------------

GUITAR TWO
|---------------------------------------------------------------------------
|---------------------------------------------------------------------------
|---------------------------------------------------------------------------
|-2-2-2-2-2-2-2-2-3-3-3-3-5-5-5-5-------------------------------------------
|-.-.-.-.-.-.-.-.-.-.-.-.-.-.-.-.-------------------------------------------
|---------------------------------------------------------------------------
Play 4 times

Riff Fb
|---------------------------------------------------------------------------
|---------------------------------------------------------------------------
|---------------------------------------------------------------------------
|-22-2-22-2-2-2-33-3-3-55-5-5-----------------------------------------------
|-00-0-00-0-0-0-33-3-3-22-2-2-----------------------------------------------
|-..---..---.---..---.-..---.-----------------------------------------------
Play 4 times

RIFF G
|---------------------------------------------------------------------------
|---------------------------------------------------------------------------
|-9------------------8-8-8-9------------------------------------------------
|-9------------------8-8-8-9------------------------------------------------
|-7--7-tremolo-pick--6-6-6-7-7-tr.pick-5--0--2------------------------------
|----.-----------------------.---------3--2--0------------------------------

RIFF H
|---------------------------------------------------------------------------
|---------12-10h12p10-------------------------------------------------------
|-9-11-12-------------12-11-12-9-9----9-9-11-12--12--11-9----9--------------
|----------------------------------12---------------------12----------------
|---------------------------------------------------------------------------
|---------------------------------------------------------------------------
Play 4 times

Play RIFF Cb 2 times

SOLO 2
|---------------------------------------------------------------------------
|---------------20t24p20----------------------------------------------------
|-------------16--------19h21p19-17h19p17-16h17p16--------------------------
|--------14h17------------------------------------19h21p19-17h19p17-16h17p16
|------14-------------------------------------------------------------------
|-12h15---------------------------------------------------------------------

|-------------------------19p17p15-19--19h20p19-22~-------------------------
|-----------------19p17p15--------------------------------------------------
|---------17p16p14----------------------------------------------------------
|-17p16p14------------------------------------------------------------------
|---------------------------------------------------------------------------
|---------------------------------------------------------------------------

Then the sweep thing, which I lost interest in :)
It starts with something like this:

|-24p19--------19p15------15------------------------------------------------
|------20----20-----17--17--------------------------------------------------
|----------21---------16----------------------------------------------------
|--------21-----------------------------------------------------------------
|---------------------------------------------------------------------------
|---------------------------------------------------------------------------

Play RIFF D
Play RIFF E, and end with:

|-//-(with palm)--|
|-//--------------|
|-----------------|
|-----------------|
|-----------------|
|----\-----------|
       \

Play RIFF Fb 4 times

Outro Riff I lost interest in. Some whammin' & jammin' on Ab, high and
low...

End song with:

|-----------|
|-----------|
|-9---7-9\--|
|-9---7-9\--|
|-7---5-7\--|
|---0-------|
    .

There are some artificially harmonized high G's and D's every now and then,
I guess you can figure out those by yourself.

Any corrections or stuff like that: feel free to send them to me, they are
welcome!

Janne Posti





Comments


Popular Children Of Bodom tabs & chords
Everytime I Die 2 Bass Tabs
Smile Pretty For The Devil 2 Bass Tabs
Children Of Decadence Drum Tabs
Are You Dead Yet? 1 Tabs
Hate Me! Tabs
Lake Bodom 1 Tabs
Lil Bloodred Ridin Hood Tabs
Reap And Roll Excercise 3 Tabs
Red Light In My Eyes Part 2 Tabs
Trashed Lost And Strungout Intro Tabs


Song lyrics



↑ Back to top | Tablatures and chords are parodies/interpretations of the original songs. You may use it for private study, scholarship, research or language learning purposes only
© 2014 AZChords.com Contact us | Privacy policy | DMCA | Add/correct tabs | Request tabs | Top 50 tabs