>
 >
Deadnight Warrior

Deadnight Warrior Bass Tabs

Children Of Bodom - Deadnight Warrior chords, tabs, tablatures, lyrics

Guitar lessons | Add/correct | Request | Top 50 tabs Artists:  A B C D E F G H I J K L M N O P Q R S T U V W X Y Z 0-9

Deadnight Warrior Bass Tabs – Children Of Bodom

CD, Sheet music, Poster

Do you like Deadnight Warrior? Share with your friends now
Bass TabsTabsTabs v2Tabs v3
Six String Bass

no bass in the intro 

                  14x                                      
C#||------||--------||------------------|------------------|
G#||------||--------||------------------|------------------|
E ||------||*------*||------------------|------------------|
B ||------||*------*||------------------|------------------|
F#||------||--------||------------------|------------------|
C#||------||--------||------------------|------------------|


                                                                                
--------------------|------------------|--------------------|------------------|
--------------------|------------------|--------------------|------------------|
--------------------|------------------|--------------------|------------------|
------------0----2--|------------------|------------0----2--|------------------|
--------------------|------------------|--------------------|------------------|
--------------------|------------------|--------------------|------------------|


                                                               
----------------------|------------------|--------------------|
----8-----------------|------------------|--------------------|
-------9--------------|------------------|--------------------|
----------8-----------|------------------|------------0----2--|
----------------------|------------------|--------------------|
-------------------0--|------------------|--------------------|


                                                                    
------------------|----------------------|-------------------------|
------------------|----8-----------------|-------------------------|
------------------|-------9--------------|-------------------------|
------------------|----------8-----------|-------------------------|
------------------|----------------------|-------------------------|
------------------|-------------------0--|----0--0--0--0--0--0--0--|


                                                                           
------------------------|-------------------------|-----------------------|
------------------------|-------------------------|-----8-----------------|
------------------------|-------------------------|--------9--------------|
----------------0----2--|-------------------------|-----------8-----------|
------------------------|-------------------------|-----------------------|
----0--0--0--0----------|----0--0--0--0--0--0--0--|--0-----------------0--|


                                                                             
-------------------------|------------------------|-------------------------|
-------------------------|------------------------|-------------------------|
-------------------------|------------------------|-------------------------|
-------------------------|----------------0----2--|-------------------------|
-------------------------|------------------------|-------------------------|
----0--0--0--0--0--0--0--|----0--0--0--0----------|----0--0--0--0--0--0--0--|


                                                              
----------------------|-------------------|------------------|
-----8----------------|-------------------|------------------|
--------9-------------|-------------------|------------------|
-----------8----------|-------------------|------------------|
----------------------|-------------------|------------------|
--0-------------------|--0----------------|------------------|


                                                                             
------------------|------------------|-------------------|------------------|
------------------|------------------|-------------------|------------------|
------------------|------------------|-------------------|------------------|
------------------|------------------|-------------------|------------------|
------------------|------------------|--3----------------|------------------|
------------------|------------------|-------------------|------------------|


                                                                     
------------------|------------------|------------------------------|
------------------|------------------|------------------------------|
------------------|------------------|------------------------------|
------------------|------------------|------------------------------|
------------------|------------------|--7-------------7-------------|
------------------|------------------|-------0--0--0-------0--0--0--|


                                                                                
--------------------------|------------------------------|---------------------|
--------------------------|------------------------------|---------------------|
--------------------------|------------------------------|---------------------|
--------------------------|------------------------------|---------------------|
--7------------------5----|--7-------------7-------------|---------------------|
-------0--0--0--3---------|-------0--0--0-------0--0--0--|--3----2----0--------|


                                                                      
----------------------------------|----------------------------------|
----------------------------------|----------------------------------|
----------------------------------|----------------------------------|
----------------------------------|----------------------------------|
-----------------------------7----|-----------5----------------------|
--0--0--0--0--0--0--0--0--0-------|--0--0--0-------0--0--0--0--0--0--|


                                                                  
------------------------------|----------------------------------|
------------------------------|----------------------------------|
------------------------------|----------------------------------|
------------------------------|----------------------------------|
-----------7-------------3----|-----------------------------7----|
--0--0--0-------0--0--0-------|--0--0--0--0--0--0--0--0--0-------|


                                                                      
----------------------------------|----------------------------------|
----------------------------------|----------------------------------|
----------------------------------|----------------------------------|
----------------------------------|----------------------------------|
-----------5----------------------|-----------7-------------3--------|
--0--0--0-------0--0--0--0--0--0--|--0--0--0-------0--0--0-----------|


                                                                      
----------------------------------|----------------------------------|
----------------------------------|----------------------------------|
----------------------------------|----------------------------------|
----------------------------------|----------------------------------|
-----------------------------7----|-----------------------------5----|
--0--0--0--0--0--0--0--0--0-------|--0--0--0--0--0--0--0--0--0-------|


                                                                  
----------------------------------|------------------------------|
----------------------------------|------------------------------|
----------------------------------|------------------------------|
----------------------------------|------------------------------|
-----------------------------7----|-----------3-------------7----|
--0--0--0--0--0--0--0--0--0-------|--0--0--0-------0--0--0-------|


                                                                      
----------------------------------|----------------------------------|
----------------------------------|----------------------------------|
----------------------------------|----------------------------------|
----------------------------------|----------------------------------|
-----------------------------7----|-----------------------------5----|
--0--0--0--0--0--0--0--0--0-------|--0--0--0--0--0--0--0--0--0-------|


                                                                  
----------------------------------|------------------------------|
----------------------------------|------------------------------|
----------------------------------|------------------------------|
----------------------------------|------------------------------|
-----------------------------7----|-----------3-------------7----|
--0--0--0--0--0--0--0--0--0-------|--0--0--0-------0--0--0-------|


                                                                              
--------------------------------------|--------------------------------------|
--------------------------------------|--------------------------------------|
--------------------------------------|--------------------------------------|
--------------------------------------|--------------------------------------|
--------------------------------------|--------------------------------------|
--6--6--6--6--6--6--6--6--6--6--6--6--|--6--6--6--6--6--6--6--6--6--6--6--6--|


                                                                              
--------------------------------------|--------------------------------------|
--------------------------------------|--------------------------------------|
--------------------------------------|--------------------------------------|
--------------------------------------|--------------------------------------|
--7--7--7--7--7--7--7--7--7--7--7--7--|--7--7--7--7--7--7--7--7--7--7--7--7--|
--------------------------------------|--------------------------------------|


                                       
--------------------------------------|
--------------------------------------|
--------------------------------------|
--------------------------------------|
--8--8--8--8--8--8--8--8--8--8--8--8--|
--------------------------------------|


                                                   
--------------------------------------------------|
--------------------------------------------------|
--------------------------------------------------|
--------------------------------------------------|
--10--10--10--10--10--10--10--10--10--10--10--10--|
--------------------------------------------------|


                                       
--------------------------------------|
--------------------------------------|
--------------------------------------|
--7--7--7--7--7--7--7--7--7--9--9--9--|
--------------------------------------|
--------------------------------------|


                                             
--------------------------------------------|
--------------------------------------------|
--------------------------------------------|
--10--10--10--10--10--10--9--9--9--9--9--9--|
--------------------------------------------|
--------------------------------------------|


                                        
---------------------------------------|
---------------------------------------|
---------------------------------------|
-----------10--------9--------7--------|
--8--8--8------8--8-----8--8-----8--8--|
---------------------------------------|


                                                                      
-------------------------------------------------|-------------------|
-------------------------------------------------|-------------------|
-------------------------------------------------|-------------------|
--------------12----------10----------9----------|-------------------|
--10--10--10------10--10------10--10-----10--10--|--0----------------|
-------------------------------------------------|-------------------|


                                                                                
-------------------|-------------------|-------------------|-------------------|
-------------------|-------------------|-------------------|-------------------|
-------------------|-------------------|-------------------|-------------------|
-------------------|-------------------|-------------------|-------------------|
----------------0--|--0----------------|----------------0--|--0----------------|
-------------------|-------------------|-------------------|-------------------|


                                                            
-------------------|-------------------|-------------------|
-------------------|-------------------|-------------------|
-------------------|-------------------|-------------------|
-------------------|-------------------|--------------7/---|
----------------0--|--0----------------|-------------------|
-------------------|-------------------|-------------------|


                                                      
--------------------------|--------------------------|
--------------------------|--------------------------|
--------------------------|--------------------------|
--------------------------|--------------------------|
--0--0--0--0--0--0--0--0--|--3--3--3--3--2--2--2--2--|
--------------------------|--------------------------|


                                                      
--------------------------|--------------------------|
--------------------------|--------------------------|
--------------------------|--------------------------|
--------------------------|--------------------------|
--0--0--0--0--0--0--0--0--|--3--3--3--3--2--2--2--2--|
--------------------------|--------------------------|


                                                      
--------------------------|--------------------------|
--------------------------|--------------------------|
--------------------------|--------------------------|
--------------------------|--------------------------|
--0--0--0--0--0--0--0--0--|--3--3--3--3--2--2--2--2--|
--------------------------|--------------------------|


                                                      
--------------------------|--------------------------|
--------------------------|--------------------------|
--------------------------|--------------------------|
--------------------------|--------------------------|
--0--0--0--0--0--0--0--0--|--3--3--3--3--2--2--2--2--|
--------------------------|--------------------------|


                                                           
--------------------------|-------------------------------|
--------------------------|-------------------------------|
--------------------------|--------10-------------12------|
--7-----7--------7-----7--|-------------------------------|
-----0-----0--0-----0-----|--8--8------8--10--10------10--|
--------------------------|-------------------------------|


                                                           
--------------------------|-------------------------------|
--------------------------|-------------------------------|
--------------------------|--------10-------------12------|
--7-----7--------7-----7--|-------------------------------|
-----0-----0--0-----0-----|--8--8------8--10--10------10--|
--------------------------|-------------------------------|


                                                           
--------------------------|-------------------------------|
--------------------------|-------------------------------|
--------------------------|--------10-------------12------|
--7-----7--------7-----7--|-------------------------------|
-----0-----0--0-----0-----|--8--8------8--10--10------10--|
--------------------------|-------------------------------|


                                                                    
--------------------------|--------------------|-------------------|
--------------------------|--------------------|-------------------|
--------------------------|--------------------|-------------------|
--7-----7--------7-----7--|--------------------|-------------------|
-----0-----0--0-----0-----|--3--------5--------|--7----------------|
--------------------------|--------------------|-------------------|


                                                                
-------------------------|-------------------|-----------------|
----------7----7----7----|-------------------|-----------------|
----------8----8----8----|-------------------|-----------------|
-------------------------|-------------------|-----------------|
-------------------------|--7----------------|-----------------|
-------------------------|-------------------|--3----2----0----|


                                                                              
------------------------------------------|----------------------------------|
------------------------------------------|----------------------------------|
------------------------------------------|----------------------------------|
------------------------------------------|----------------------------------|
--7-7-7-7-10-10-10-10-10-10-10-10-5-5-5-5-|--5-5-5-5-7-7-7-7-7-7-7-7-5-5-5-5-|
------------------------------------------|----------------------------------|


                                                                      
----------------------------------|----------------------------------|
----------------------------------|----------------------------------|
----------------------------------|----------------------------------|
----------------------------------|----------------------------------|
--5-5-5-5-----------------5-5-5-5-|--5-5-5-5-7-7-7-7-7-7-7-7-7-7-7-7-|
----------8-8-8-8-8-8-8-8---------|----------------------------------|


                                                                              
------------------------------------------|----------------------------------|
------------------------------------------|----------------------------------|
------------------------------------------|----------------------------------|
------------------------------------------|----------------------------------|
--7-7-7-7-10-10-10-10-10-10-10-10-5-5-5-5-|--5-5-5-5-7-7-7-7-7-7-7-7-5-5-5-5-|
------------------------------------------|----------------------------------|


                                                                      
----------------------------------|----------------------------------|
----------------------------------|----------------------------------|
----------------------------------|----------------------------------|
----------------------------------|----------------------------------|
--5-5-5-5-----------------5-5-5-5-|--5-5-5-5-7-7-7-7-7-7-7-7-7-7-7-7-|
----------8-8-8-8-8-8-8-8---------|----------------------------------|


                                                                              
------------------------------------------|----------------------------------|
------------------------------------------|----------------------------------|
------------------------------------------|----------------------------------|
------------------------------------------|----------------------------------|
--7-7-7-7-10-10-10-10-10-10-10-10-5-5-5-5-|--5-5-5-5-7-7-7-7-7-7-7-7-5-5-5-5-|
------------------------------------------|----------------------------------|


                                                                      
----------------------------------|----------------------------------|
----------------------------------|----------------------------------|
----------------------------------|----------------------------------|
----------------------------------|----------------------------------|
--5-5-5-5-----------------5-5-5-5-|--5-5-5-5-7-7-7-7-7-7-7-7-7-7-7-7-|
----------8-8-8-8-8-8-8-8---------|----------------------------------|


                                                                              
------------------------------------------|----------------------------------|
------------------------------------------|----------------------------------|
------------------------------------------|----------------------------------|
------------------------------------------|----------------------------------|
--7-7-7-7-10-10-10-10-10-10-10-10-5-5-5-5-|--5-5-5-5-7-7-7-7-7-7-7-7-5-5-5-5-|
------------------------------------------|----------------------------------|


                                                           
----------------------------------|-----------------------|
----------------------------------|-----------------------|
----------------------------------|-----------------------|
----------------------------------|-----------------------|
--5-5-5-5-----------------5-5-5-5-|--5-5-5-5-7------------|
----------8-8-8-8-8-8-8-8---------|-----------------------|


                                                                      
----------------------------------|----------------------------------|
----------------------------------|----------------------------------|
----------------------------------|----------------------------------|
----------------------------------|----------------------------------|
-----------------------------7----|-----------------------------5----|
--0--0--0--0--0--0--0--0--0-------|--0--0--0--0--0--0--0--0--0-------|


                                                                  
----------------------------------|------------------------------|
----------------------------------|------------------------------|
----------------------------------|------------------------------|
----------------------------------|------------------------------|
-----------------------------7----|-----------3-------------7----|
--0--0--0--0--0--0--0--0--0-------|--0--0--0-------0--0--0-------|


                                                                      
----------------------------------|----------------------------------|
----------------------------------|----------------------------------|
----------------------------------|----------------------------------|
----------------------------------|----------------------------------|
-----------------------------7----|-----------------------------5----|
--0--0--0--0--0--0--0--0--0-------|--0--0--0--0--0--0--0--0--0-------|


                                                                  
----------------------------------|------------------------------|
----------------------------------|------------------------------|
----------------------------------|------------------------------|
----------------------------------|------------------------------|
-----------------------------7----|-----------3-------------7----|
--0--0--0--0--0--0--0--0--0-------|--0--0--0-------0--0--0-------|


                                                          
------------------------------|--------------------------|
------------------------------|--------------------------|
------------------------------|--------------------------|
------------------------------|--------------------------|
--7----7--7--7--7----7--7--7--|--------------------------|
------------------------------|--7----7--7--7--3----0----|


                                                     
------------------------------|---------------------|
------------------------------|---------------------|
------------------------------|---------------------|
------------------------------|---------------------|
--7----7--7--7--7----7--7--7--|--10--------5--------|
------------------------------|---------------------|


                                                                              
--------------------------------------|--------------------------------------|
--------------------------------------|--------------------------------------|
--------------------------------------|--------------------------------------|
--------------------------------------|--------------------------------------|
--7--7--7--7--7--7--7--7--7--7--7--7--|--------------------------------------|
--------------------------------------|--7--7--7--7--7--7--7--7--7--7--7--7--|


                                             
--------------------------------------------|
--------------------------------------------|
--------------------------------------------|
--------------------------------------------|
--------------------------------------------|
--12--12--12--12--12--12--8--8--8--8--8--8--|


                                             
--------------------------------------------|
--------------------------------------------|
--------------------------------------------|
--------------------------------------------|
--------------------------------------------|
--10--10--10--10--10--10--7--7--7--7--7--7--|


                                                                              
--------------------------------------|--------------------------------------|
--------------------------------------|--------------------------------------|
--------------------------------------|--------------------------------------|
--------------------------------------|--------------------------------------|
--------------------------------------|--------------------------------------|
--6--6--6--6--6--6--6--6--6--6--6--6--|--6--6--6--6--6--6--6--6--6--6--6--6--|


                                                                              
--------------------------------------|--------------------------------------|
--------------------------------------|--------------------------------------|
--------------------------------------|--------------------------------------|
--------------------------------------|--------------------------------------|
--7--7--7--7--7--7--7--7--7--7--7--7--|--7--7--7--7--7--7--7--7--7--7--7--7--|
--------------------------------------|--------------------------------------|


                                       
--------------------------------------|
--------------------------------------|
--------------------------------------|
--------------------------------------|
--8--8--8--8--8--8--8--8--8--8--8--8--|
--------------------------------------|


                                                   
--------------------------------------------------|
--------------------------------------------------|
--------------------------------------------------|
--------------------------------------------------|
--10--10--10--10--10--10--10--10--10--10--10--10--|
--------------------------------------------------|


                                       
--------------------------------------|
--------------------------------------|
--------------------------------------|
--7--7--7--7--7--7--7--7--7--9--9--9--|
--------------------------------------|
--------------------------------------|


                                             
--------------------------------------------|
--------------------------------------------|
--------------------------------------------|
--10--10--10--10--10--10--9--9--9--9--9--9--|
--------------------------------------------|
--------------------------------------------|


                                        
---------------------------------------|
---------------------------------------|
---------------------------------------|
-----------10--------9--------7--------|
--8--8--8------8--8-----8--8-----8--8--|
---------------------------------------|


                                                                       
--------------------------------------------------|-------------------|
--------------------------------------------------|-------------------|
--------------------------------------------------|-------------------|
--------------12----------10----------10----------|-------------------|
--10--10--10------10--10------10--10------10--10--|--0----------------|
--------------------------------------------------|-------------------|


                                                              
--------------------|-------------------|--------------------|
--------------------|-------------------|--------------------|
--------------------|-------------------|--------------------|
--------------------|-------------------|--------------------|
--------------------|--0----------------|--------------------|
--1--------3--------|-------------------|--1--------3--------|


                                                             
-------------------|--------------------|-------------------|
-------------------|--------------------|-------------------|
-------------------|--------------------|-------------------|
-------------------|--------------------|-------------------|
--0----------------|--------------------|--0----------------|
-------------------|--1--------3--------|-------------------|


                                                                                
--------------------|--------------------------|-------------------------------|
--------------------|--------------------------|-------------------------------|
--------------------|--------------------------|--------10-------------12------|
--------------------|--7-----7--------7-----7--|-------------------------------|
--------------------|-----0-----0--0-----0-----|--8--8------8--10--10------10--|
--1--------3--------|--------------------------|-------------------------------|


                                                           
--------------------------|-------------------------------|
--------------------------|-------------------------------|
--------------------------|--------10-------------12------|
--7-----7--------7-----7--|-------------------------------|
-----0-----0--0-----0-----|--8--8------8--10--10------10--|
--------------------------|-------------------------------|


                                                           
--------------------------|-------------------------------|
--------------------------|-------------------------------|
--------------------------|--------10-------------12------|
--7-----7--------7-----7--|-------------------------------|
-----0-----0--0-----0-----|--8--8------8--10--10------10--|
--------------------------|-------------------------------|


                                                                    
--------------------------|--------------------|-------------------|
--------------------------|--------------------|-------------------|
--------------------------|--------------------|-------------------|
--7-----7--------7-----7--|--------------------|-------------------|
-----0-----0--0-----0-----|--3--------5--------|--6----------------|
--------------------------|--------------------|-------------------|


                                                                                
-------------------|-------------------|-------------------|-------------------|
-------------------|-------------------|-------------------|-------------------|
-------------------|-------------------|-------------------|-------------------|
--7----------------|-------------------|--7----------------|-------------------|
-------------------|--6----------------|-------------------|--6----------------|
-------------------|-------------------|-------------------|-------------------|


                                                            
-------------------|-------------------|-------------------|
-------------------|-------------------|-------------------|
-------------------|-------------------|-------------------|
--7----------------|-------------------|--7----------------|
-------------------|--6----------------|-------------------|
-------------------|-------------------|-------------------|


                                              
------------------------|-------------------||
------------------------|-------------------||
------------------------|-------------------||
------------------------|-------------------||
------------7--7--5--7--|--------------7/---||
--0----0----------------|-------------------||





Comments


Popular Children Of Bodom tabs & chords
Smile Pretty For The Devil 2 Bass Tabs
Touch Like Angel Of Death Bass Tabs
Are You Dead Yet? Drum Tabs
Done With Everything Die For Nothing Tabs
Dont Stop At The Top Tabs
Downfall 5 Tabs
Kissing The Shadows Tabs
Sixpounder (Intro) Tabs
Sixpounder (Solo) Tabs
Wrath Within Fills And Solos Tabs


Song lyrics



↑ Back to top | Tablatures and chords are parodies/interpretations of the original songs. You may use it for private study, scholarship, research or language learning purposes only
© 2014 AZChords.com Contact us | Privacy policy | DMCA | Add/correct tabs | Request tabs | Top 50 tabs