» » »

Children Of Bodom, Bastard Of Bodom Tabs (ver.3)

Artists:  A B C D E F G H I J K L M N O P Q R S T U V W X Y Z # 

Bastard Of Bodom Tabs (ver.3)

Children Of Bodom Tabs
 Rating:
4/5 (4 votes)
Bastard Of Bodom lessons Tabs too difficult? Try these video lessons and learn fast
1
                Bastards of Bodom - Children Of Bodom


all but solo

D |------------------------------------------------------------------||
A |------------------------------------------------------------------||
F |------------------------------------------------------------------||
C |----------------------------------------------77--555--333--555---||
G |-3-0---------2-3---------3-0--------2-3-------55--333--111--333---||
C |-3-0--00000--2-3--00000--3-0--00000-2-3-00000---------------------||
         *****       *****       *****     *****
D|-------------------------------------------------------------------||
A|-------------------------------------------------------------------||
F |------------------------------------------------------------------||
C |-------------------------------------------------33-555-----------||
G |-3-0---------2-3---------3-0---------2-3---------11-333--333-555--||
C |-3-0--00000--2-3--00000--3-0--00000--2-3--00000----------333-555--||
         *****       *****       *****       *****
Second Time Play This At End
D||----------------------||
A||----------------------||
F ||---------------------||
C ||-3333------5555------||
G ||-1111-33---3333-55---||
C ||------33--------55---||

D|-----------------------------------------------------------||
A|-----------------------------------------------------------||
F |----------------------------------------------------------||
C |--------444--5555----------------444-2222-444-------------||
G |-2-0-2--222--3333--55-44--2-0-2--222-0000-222-------------||
C |-2-0-2-------------55-44--2-0-2---------------------------||

D |----------------------------------------------------------------||
A |-------------------------------10-7-10/12-10-9------------------||
F |----------------------------------------------------------------||
C |----------8--5--7-----------------------------------------------||
G |-0-0-0----6--3--5-----------------------------------------------||
C |-0-0-0-------------0000000--------------------------------------||
    * * *             *******
D |------------------------------------------------------------------||
A |--------------------------10-8-6-8-10-8-6-8-----------------------||
F |----------------------------------------------9-7--3~-------------||
C |--------8--5--7---------------------------------------------------||
G |-0-0-0--6--3--5---------------------------------------------------||
C |-0-0-0-----------0000000------------------------------------------||
    * * *           *******
D |----------------------------------------------------------------||
A |----------------------------------------------------------------||
F |--------------------------12-9-12/14--12-11---------------------||
C |----------------------------------------------------------------||
G |-2-2-2--3-0-2---------------------------------------------------||
C |-2-2-2--3-0-2--2222222------------------------------------------||
    * * *         *******
D |------------------------------------------------------------------||
A |-------------------------------10-8-6-8-10-8-6-8------------------||
F |--------------------------------------------------9-5--9/10-------||
C |---------8--5--7--------------------------------------------------||
G |-0-0-0---6--3--5--------------------------------------------------||
C |-0-0-0------------0000000-----------------------------------------||
 Chorus
D |----------------------------------------------------------------||
A |----------------------------------------------------------------||
F |----------------------------------------------------------------||
C |-33-33-3-----------5---33-33-3-----------5----------------------||
G |-11-11-1--00--22---3---11-11-1---00--22--3----------------------||
C |----------00--22-----------------00--22-------------------------||

slight Palm Mute All
D |----------------------------------------------------------------||
A |----------------------------------------------------------------||
F |---7-9-7-10-7--x3-------5-9-5-10-5--x3--------------------------||
C |-7--------------------7-----------------------------------------||
G |----------------------------------------------------------------||
C |----------------------------------------------------------------||
            
Submit corrections

comments powered by Disqus
↑ Back to top | Children Of Bodom Tabs for Bastard Of Bodom. Lyrics for acoustic guitar and electric guitar. 1 Tablatures and chords are parodies/interpretations of the original songs. You may use it for private study, scholarship, research or language learning purposes only