>
 >
Bastards Of Bodom

Bastards Of Bodom Bass Tabs

Children Of Bodom - Bastards Of Bodom chords, tabs, tablatures, lyrics

Guitar lessons | Add/correct | Request | Top 50 tabs Artists:  A B C D E F G H I J K L M N O P Q R S T U V W X Y Z 0-9

Bastards Of Bodom Bass Tabs – Children Of Bodom

CD, Sheet music, Poster

Do you like Bastards Of Bodom? Share with your friends now
Bass TabsTabsTabs v2Tabs v3
Children of Bodom - Bastards of Bodom

Tuning (C G C F)

F||--------------------------|-------------------------|
C||--------------------------|-------------------------|
G||--------------------------|-------------------------|
C||--2--3--0--0--0--0--0--2--|----3--0--0--0--0--0--0--|


                                                                                
--------------------------|-------------------------|--------------------------|
--------------------------|-------------------------|--------------------------|
--------------------------|-------------------------|--------------------------|
--2--3--0--0--0--0--0--2--|----3--0--0--0--0--0--0--|--2--3--0--0--0--0--0--2--|


                                                        
-------------------------|-----------------------------|
-------------------------|-----------------------------|
-------------------------|-----------------------------|
----3--0--0--0--0--0--0--|--0------15/-14/-13/-12/-11/-|


                                                                                
--------------------------|--------------------------|-------------------------|
--------------------------|--------------------------|-------------------------|
--------------------------|--------------------------|-------------------------|
--10/-9/-8/-7/-6/-5/-3----|--2--3--0--0--0--0--0--2--|----3--0--0--0--0--0--0--|


                                                      
--------------------------|--------------------------|
--------------------------|--------------------------|
--5--5--5--5--3--3--3--3--|--1--1--1--1--3--3--3--3--|
--------------------------|--------------------------|


                                                                                
--------------------------|-------------------------|--------------------------|
--------------------------|-------------------------|--------------------------|
--------------------------|-------------------------|--1--1--1--1--3--3--3--3--|
--2--3--0--0--0--0--0--2--|----3--0--0--0--0--0--0--|--------------------------|


                                                      
--------------------------|--------------------------|
--------------------------|--------------------------|
--------------------------|--------------------------|
--3--3--3--3--5--5--5--5--|--2--3--0--0--0--0--0--2--|


                                                      
--------------------------|--------------------------|
--------------------------|--------------------------|
--------------------------|--5--5--5--5--3--3--3--3--|
----3--0--0--0-0-0--0--0--|--------------------------|


                                                                                
--------------------------|--------------------------|-------------------------|
--------------------------|--------------------------|-------------------------|
--1--1--1--1--3--3--3--3--|--------------------------|-------------------------|
--------------------------|--2--3--0--0--0--0--0--2--|----3--0--0--0--0--0--0--|


                                                                            
------------------------|------------------------|-------------------------|
------------------------|------------------------|-------------------------|
----1--1--1--1----------|----3--3--3--3----------|--------0--2----2--2--3--|
----------------3----3--|----------------5----5--|--0--5-------------------|


                                                                               
-------------------------|-------------------------|--------------------------|
-------------------------|-------------------------|--------------------------|
----3--3--3--------------|--------0--2----2--2--2--|--0--0--0--0--2--2--2--2--|
-------------5--5--0--0--|--0--5-------------------|--------------------------|


                                                                              
-------------------------|-------------------------|-------------------------|
-------------------------|-------------------------|-------------------------|
--------0--2----2--2--3--|----3--3--3--------------|--------0--2----2--2--2--|
--0--5-------------------|-------------5--5--0--0--|--0--5-------------------|


                                                                            
-------------------|--------------------------|----------------------------|
-------------------|--------------------------|----------------------------|
--7----------------|--------------------------|----------------------------|
-------------------|--0--0--0--0--0--0--0--0--|--0--0--0-0-0--0--0--0-0-0--|


                                                      
--------------------------|--------------------------|
--------------------------|--------------------------|
--------------------------|--5--5--5--5--3--3--3--3--|
--0--0--0--0--3--3--3--3--|--------------------------|


                                                        
--------------------------|----------------------------|
--------------------------|----------------------------|
--------------------------|----------------------------|
--0--0--0--0--0--0--0--0--|--0--0--0-0-0--0--0--0-0-0--|


                                                      
--------------------------|--------------------------|
--------------------------|--------------------------|
--8--8--8--8--5--5--5--5--|--12----12----12----12----|
--------------------------|--------------------------|


                                                        
--------------------------|----------------------------|
--------------------------|----------------------------|
--------------------------|----------------------------|
--0--0--0--0--0--0--0--0--|--0--0--0-0-0--0--0--0-0-0--|


                                                      
--------------------------|--------------------------|
--------------------------|--------------------------|
--------------------------|--5--5--5--5--3--3--3--3--|
--0--0--0--0--3--3--3--3--|--------------------------|


                                                        
--------------------------|----------------------------|
--------------------------|----------------------------|
--------------------------|----------------------------|
--0--0--0--0--0--0--0--0--|--0--0--0-0-0--0--0--0-0-0--|


                                                                                
--------------------------|--------------------------|-------------------------|
--------------------------|--------------------------|-------------------------|
--8--8--8--8--5--5--5--5--|--12----12----12----12----|--------0--2----2--2--3--|
--------------------------|--------------------------|--5--5-------------------|


                                                                               
-------------------------|-------------------------|--------------------------|
-------------------------|-------------------------|--------------------------|
----3--3--3--------------|--------0--2----2--2--2--|--0--0--0--0--2--2--2--2--|
-------------5--5--0--0--|--0--5-------------------|--------------------------|


                                                                              
-------------------------|-------------------------|-------------------------|
-------------------------|-------------------------|-------------------------|
--------0--2----2--2--3--|----3--3--3--------------|--------0--2----2--2--2--|
--5--5-------------------|-------------5--5--0--0--|--0--5-------------------|


                                                      
--------------------------|--------------------------|
--------------------------|--------------------------|
--0--0--0--0--2--2--2--2--|--------------------------|
--------------------------|--0--0--0--0--0--0--0--0--|


                                                        
----------------------------|--------------------------|
----------------------------|--------------------------|
----------------------------|--------------------------|
--0--0--0-0-0--0--0--0-0-0--|--0--0--0--0--3--3--3--3--|


                                                      
--------------------------|--------------------------|
--------------------------|--------------------------|
--5--5--5--5--3--3--3--3--|--------------------------|
--------------------------|--0--0--0--0--0--0--0--0--|


                                                        
----------------------------|--------------------------|
----------------------------|--------------------------|
----------------------------|--8--8--8--8--5--5--5--5--|
--0--0--0-0-0--0--0--0-0-0--|--------------------------|


                                                      
--------------------------|--------------------------|
--------------------------|--------------------------|
--12----12----12----12----|--------------------------|
--------------------------|--0--0--0--0--0--0--0--0--|


                                                        
----------------------------|--------------------------|
----------------------------|--------------------------|
----------------------------|--------------5--5--5--5--|
--0--0--0-0-0--0--0--0-0-0--|--0--0--0--0--------------|


                                                      
--------------------------|--------------------------|
--------------------------|--------------------------|
--7--7--7--7--5--5--5--5--|--------------------------|
--------------------------|--0--0--0--0--0--0--0--0--|


                                                        
----------------------------|--------------------------|
----------------------------|--------------------------|
----------------------------|--8--8--8--8--5--5--5--5--|
--0--0--0-0-0--0--0--0-0-0--|--------------------------|


                                                                             
--------------------------|------------------------|------------------------|
--------------------------|------------------------|------------------------|
--10----10----10----10----|------------------------|------------------------|
--------------------------|--8--8--8--8------8--8--|--8--8------8--8--8--8--|


                                                                         
----------------------|--------------------------|----------------------|
----------------------|--------------------------|----------------------|
----------------------|--------------------------|----------------------|
------0--0--0--0------|--3--3--3--3------10--10--|------8--8--8--8------|


                                                                             
------------------------|------------------------|--------------------------|
------------------------|------------------------|--------------------------|
------------------------|------------------------|--------------------------|
--8--8--8--8------0--0--|--0--0------1--1--1--1--|------3--3--3--3--10--10--|


                                                                         
------------------------|------------------------|----------------------|
------------------------|------------------------|----------------------|
------------------------|------------------------|----------------------|
--8--8--8--8------8--8--|--8--8------8--8--8--8--|------0--0--0--0------|


                                                                           
--------------------------|----------------------|------------------------|
--------------------------|----------------------|------------------------|
--------------------------|----------------------|------------------------|
--3--3--3--3------10--10--|------8--8--8--8------|--8--8--8--8------0--0--|


                                                                               
------------------------|--------------------------|--------------------------|
------------------------|--------------------------|--------------------------|
------------------------|--------------------------|--------------------------|
--0--0------1--1--1--1--|------3--3--3--3--10--10--|--2--3--0--0--0--0--0--2--|


                                                      
--------------------------|--------------------------|
--------------------------|--------------------------|
--------------------------|--5--5--5--5--3--3--3--3--|
--2--3--0--0--0--0--0--0--|--------------------------|


                                                                       
--------------------------|--------------------------|----------------|
--------------------------|--------------------------|----------------|
--1--1--1--1--3--3--3--3--|--------------------------|----------------|
--------------------------|--2--3--0--0--0--0--0--2--|----3--0--------|


                                                                             
------------------------|------------------------|--------------------------|
------------------------|------------------------|--------------------------|
----1--1--1--1----------|----3--3--3--3----------|--------------------------|
----------------3----3--|----------------5----5--|--0--0--0--0--0--0--0--0--|


                                                        
----------------------------|--------------------------|
----------------------------|--------------------------|
----------------------------|--------------------------|
--0--0--0-0-0--0--0--0-0-0--|--0--0--0--0--3--3--3--3--|


                                                      
--------------------------|--------------------------|
--------------------------|--------------------------|
--5--5--5--5--3--3--3--3--|--------------------------|
--------------------------|--0--0--0--0--0--0--0--0--|


                                                        
----------------------------|--------------------------|
----------------------------|--------------------------|
----------------------------|--8--8--8--8--5--5--5--5--|
--0--0--0-0-0--0--0--0-0-0--|--------------------------|


                                                      
--------------------------|--------------------------|
--------------------------|--------------------------|
--12----12----12----12----|--------------------------|
--------------------------|--0--0--0--0--0--0--0--0--|


                                                        
----------------------------|--------------------------|
----------------------------|--------------------------|
----------------------------|--------------------------|
--0--0--0-0-0--0--0--0-0-0--|--0--0--0--0--3--3--3--3--|


                                                      
--------------------------|--------------------------|
--------------------------|--------------------------|
--5--5--5--5--3--3--3--3--|--------------------------|
--------------------------|--0--0--0--0--0--0--0--0--|


                                                        
----------------------------|--------------------------|
----------------------------|--------------------------|
----------------------------|--5--5--5--5--3--3--3--3--|
--0--0--0-0-0--0--0--0-0-0--|--------------------------|


                                                                               
--------------------------|-------------------------|-------------------------|
--------------------------|-------------------------|-------------------------|
--12----12----12----12----|----------------------2--|--0----------------------|
--------------------------|--0--2--3--2----0--2-----|-----3--2--0--3--2--1----|


                                                                               
-------------------------|--------------------------|-------------------------|
-------------------------|--------------------------|-------------------------|
----------------------2--|--0-----------------------|----------------------2--|
--0--2--3--2----0--2-----|-----3--2--0--3--2--1--0--|--0--2--3--2----0--2-----|


                                                                               
-------------------------|-------------------------|--------------------------|
-------------------------|-------------------------|--------------------------|
--0----------------------|----------------------2--|--0--------------3--2--1--|
-----3--2--0--3--2--1----|--0--2--3--2----0--2-----|-----3--2--1--0-----------|


                                                                              
-------------------------|-------------------------|-------------------------|
-------------------------|-------------------------|-------------------------|
-------------------2--2--|-----------2-------------|----------------------2--|
--0--2--3--2----0--------|--0--2--3-----3--2--1~---|--0--2--3--2----0--2-----|


                                                                               
--------------------------|-------------------------|-------------------------|
--------------------------|-------------------------|-------------------------|
--0-----------------------|----------------------2--|--0----------------------|
-----3--2--0--3--2--1--0--|--0--2--3--2----0--2-----|-----3--2--0--3--2--1----|


                                                                              
-------------------------|--------------------------|------------------------|
-------------------------|--------------------------|------------------------|
----------------------2--|--0--------------3--2--1--|------------------------|
--0--2--3--2----0--2-----|-----3--2--1--0-----------|--8--8--8--8------8--8--|


                                                                           
------------------------|----------------------|--------------------------|
------------------------|----------------------|--------------------------|
------------------------|----------------------|--------------------------|
--8--8------8--8--8--8--|------0--0--0--0------|--3--3--3--3------10--10--|


                                                                         
----------------------|------------------------|------------------------|
----------------------|------------------------|------------------------|
----------------------|------------------------|------------------------|
------8--8--8--8------|--8--8--8--8------0--0--|--0--0------1--1--1--1--|


                                                                             
--------------------------|------------------------|------------------------|
--------------------------|------------------------|------------------------|
--------------------------|------------------------|------------------------|
------3--3--3--3--10--10--|--8--8--8--8------8--8--|--8--8------8--8--8--8--|


                                                                         
----------------------|--------------------------|----------------------|
----------------------|--------------------------|----------------------|
----------------------|--------------------------|----------------------|
------0--0--0--0------|--3--3--3--3------10--10--|------8--8--8--8------|


                                                                             
------------------------|------------------------|--------------------------|
------------------------|------------------------|--------------------------|
------------------------|------------------------|--------------------------|
--8--8--8--8------0--0--|--0--0------1--1--1--1--|------3--3--3--3--10--10--|


                                                                         
------------------------|------------------------|----------------------|
------------------------|------------------------|----------------------|
------------------------|------------------------|----------------------|
--8--8--8--8------8--8--|--8--8------8--8--8--8--|------0--0--0--0------|


                                                                           
--------------------------|----------------------|------------------------|
--------------------------|----------------------|------------------------|
--------------------------|----------------------|------------------------|
--3--3--3--3------10--10--|------8--8--8--8------|--8--8--8--8------0--0--|


                                                                             
------------------------|--------------------------|------------------------|
------------------------|--------------------------|------------------------|
------------------------|--------------------------|------------------------|
--0--0------1--1--1--1--|------3--3--3--3--10--10--|--8--8--8--8------8--8--|


                                                                           
------------------------|----------------------|--------------------------|
------------------------|----------------------|--------------------------|
------------------------|----------------------|--------------------------|
--8--8------8--8--8--8--|------0--0--0--0------|--3--3--3--3------10--10--|


                                                                         
----------------------|------------------------|------------------------|
----------------------|------------------------|------------------------|
----------------------|------------------------|------------------------|
------8--8--8--8------|--8--8--8--8------0--0--|--0--0------1--1--1--1--|


                                                      
--------------------------|--------------------------|
--------------------------|--------------------------|
--------------------------|--------------------------|
------3--3--3--3--10--10--|--2--3--0--0--0--0--0--2--|


                                                                                
--------------------------|--------------------------|-------------------------|
--------------------------|--------------------------|-------------------------|
--------------------------|--------------------------|-------------------------|
--2--3--0--0--0--0--0--0--|--2--3--0--0--0--0--0--2--|----3--0--0--0--0--0--0--|


                                                                                
--------------------------|-------------------------|--------------------------|
--------------------------|-------------------------|--------------------------|
--------------------------|-------------------------|--------------------------|
--2--3--0--0--0--0--0--2--|----3--0--0--0--0--0--0--|--2--3--0--0--0--0--0--2--|


                                                                                
-------------------------|--------------------------|------------------|------||
-------------------------|--------------------------|------------------|------||
-------------------------|--------------------------|------------------|------||
----3--0--0--0--0--0--0--|--2--3--0--0--0--0--0--0--|------------------|------||





Comments


Popular Children Of Bodom tabs & chords
Aces High Bass Tabs
Children Of Bodom Bass Tabs
Everytime I Die 2 Bass Tabs
Downfall (Solo) Tabs
Punch Me I Bleed 2 Tabs
Reap And Roll Excercise 8 Tabs
She Is Beautiful Tabs
Smile Pretty For The Devil Tabs
Summer Tabs
Was It Worth It Tabs


Song lyrics



↑ Back to top | Tablatures and chords are parodies/interpretations of the original songs. You may use it for private study, scholarship, research or language learning purposes only
© 2014 AZChords.com Contact us | Privacy policy | DMCA | Add/correct tabs | Request tabs | Top 50 tabs