>
 >
Aces High 2

Aces High 2 Guitar Tabs

Children Of Bodom - Aces High 2 chords, tabs, tablatures, lyrics

Guitar lessons | Add/correct | Request | Top 50 tabs Artists:  A B C D E F G H I J K L M N O P Q R S T U V W X Y Z 0-9

Aces High 2 Guitar Tabs – Children Of Bodom

CD, Sheet music, Poster

Do you like Aces High 2? Share with your friends now
Bass TabsTabsTabs v2
none of u bastards wanted to tab the solos.
Well, i tried :D

here u go
(D tuning)

guitar solo
|-----------------12-14-15-|-19-17~~-20-19-17~~-20-22-17~~-|
|---------12-13-15---------|-------------------------------|
|-11-12-14-----------------|-------------------------------|
|--------------------------|-------------------------------|
|--------------------------|-------------------------------|
|--------------------------|-------------------------------|

|-19-20-19-17--17-----------------|------17----------22p17-|
|------------20--20-19-20-19-17~~-|----17--20p17---17------|
|---------------------------------|-19b---------19b--------|
|---------------------------------|------------------------|
|---------------------------------|------------------------|
|---------------------------------|------------------------|

|------------17\-|-/12-15-14-12---------------------------------|
|----17-20p17----|-------------15/17\15-13-12-15-13-12-15-17*~~-|
|-19b------------|----------------------------------------------|
|----------------|----------------------------------------------|
|----------------|----------------------------------------------|
|----------------|----------------------------------------------|
                  ^ ????? (not sure here, wierd slur w/ whammy)

|-20-19-17-20-19-17----------------------------------------------------|
|------------------20-19-17-20-19-17-----------------------------------|
|-----------------------------------19-17-16-19-17-16------------------|
|----------------------------------------------------19-17-16-19-17-16-|
|----------------------------------------------------------------------|
|----------------------------------------------------------------------|

|-t17p12h15-t17p12h15-t19p12h15-t19p12h25-|
|-----------------------------------------|
|-----------------------------------------|
|-----------------------------------------|
|-----------------------------------------|
|-----------------------------------------|

|-t24p12h15-t19p12h15-t17p12h15-t19p12h15-|
|-----------------------------------------|
|-----------------------------------------|
|-----------------------------------------|
|-----------------------------------------|
|-----------------------------------------|

|-22brp20---------------------------------|--------------------------|
|--------20b20brp17-----------------------|--------------------------|
|------------------19b19brp17-------------|--------16/-17/-/19-/21~~-|
|----------------------------19b19brp17~~-|-/17-/19------------------|
|-----------------------------------------|--------------------------|
|-----------------------------------------|--------------------------|
                             ^whammy these entire sections^

guitar solo rhythm
|---|-----------|-----------|-----------|-------|
|---|-----------|-----------|-----------|-------|
|-9-|-5---7---9-|-5---7---9-|-5---7---9-|-5---7-|
|-9-|-5---7---9-|-5---7---9-|-5---7---9-|-5---7-|
|-7-|-3---5---7-|-3---5---7-|-3---5---7-|-3---5-|
|---|-----------|-----------|-----------|-------|

now for the INSANELY INSANE keyboard solo
|---------------------------------------|
|-14p12--15p12--14p12--15p12--14p12--12-|
|------14-----14-----14-----14-----14---|
|---------------------------------------|
|---------------------------------------|
|---------------------------------------|

|---------------------------------------|
|-14p12--15p12--14p12--15p12--14p12--12-|
|------14-----14-----14-----14-----14---|
|---------------------------------------|
|---------------------------------------|
|---------------------------------------|

 hope u know how 2 sweep
|-----------------------------------------------------------|
|-----12h15p12------12h15p12------12h15p12-----12h15p12-----|
|---14--------14--14--------14--14-------14--14--------14---|
|-14------------14------------14-----------14------------14-|
|-----------------------------------------------------------|
|-----------------------------------------------------------|

|-----------------------------------12h17p12------12h17p12-----|
|-----12h15p12------12h15p12------15--------15--15--------15---|
|---14--------14--14--------14--14------------14------------14-|
|-14------------14------------14-------------------------------|
|--------------------------------------------------------------|
|--------------------------------------------------------------|

|---------------19h21h22/24\22p21p19------------------------------------|
|-22p20p19h20h22--------------------22p20p19----------------------------|
|-------------------------------------------21p19p18--------------------|
|---------------------------------------------------21p19p17------------|
|-----------------------------------------------------------21p19p17\14-|
|-----------------------------------------------------------------------|
                        ^probably wrong but wth^

|-10p9p7--------------------------|
|-------10p8p7--------------------|
|-------------9p7p6---------------|
|------------------9p7p5----------|
|-----------------------9p7p5-----|
|----------------------------/7~~-|

|-------------------------------------------------------|
|------------5h7h8--------------------------------------|
|------------------------------11h12h14--------12h14h16-|
|-----------------------7h9h11---------11h12h14---------|
|------------------5h7h9--------------------------------|
|-5h7h9-5h7h9-------------------------------------------|
               ^this looks wierd as hell but sounds right

|------------------19h21h22p21p19------------|
|-14h15h17/19h20h22--------------19h20h22b~~-|
|--------------------------------------------|
|--------------------------------------------|
|--------------------------------------------|
|--------------------------------------------|
 this last slur has some kind of delay effect

keyboard solo rhythm (notice the key change/the chords are different)
|---|-----------|-----------|-----------|-------|
|---|-----------|-----------|-----------|-------|
|---|-----------|-----------|-----------|-------|
|-9-|-5---7---9-|-5---7---9-|-5---7---9-|-5---7-|
|-9-|-5---7---9-|-5---7---9-|-5---7---9-|-5---7-|
|-7-|-3---5---7-|-3---5---7-|-3---5---7-|-3---5-|

Hope i did OK. Anyonw who wants to make corrections feel free.
If u can play this...ur nasty at guitar





Comments


Popular Children Of Bodom tabs & chords
Downfall 2 Bass Tabs
Six Pounder Drum Tabs
Are You Dead Yet 4 Tabs
Bodom After Midnight Tabs
Bodom Beach Terror 4 Tabs
Deadnight Warrior 2 Tabs
Needled 24 7 Tabs
Silent Night, Bodom Night Tabs
The Final Countdown 1 Tabs
Wrath Within (Solo) Tabs


Song lyrics



↑ Back to top | Tablatures and chords are parodies/interpretations of the original songs. You may use it for private study, scholarship, research or language learning purposes only
© 2014 AZChords.com Contact us | Privacy policy | DMCA | Add/correct tabs | Request tabs | Top 50 tabs