» » »

Children Of Bodom, Aces High Bass tabs (ver.1)

Artists:  A B C D E F G H I J K L M N O P Q R S T U V W X Y Z # 

Aces High Bass tabs (ver.1)

Children Of Bodom Tabs
 Rating:
3.6/5 (7 votes)
Aces High lessons Tabs too difficult? Try these video lessons and learn fast
1
                Band: Children Of Bodom


Intro
G|-20~----------|-17~----------||
D|-20~----------|-17~----------||
A|-19~-19-19-19-|-15~-15-15-15-|| x3
E|--------------|--------------||


Intro Part II
G|------------------------------------------------------||
D|-1717171717171717-131313131313131313-1515151515151515-||
A|------------------------------------------------------|| x4
E|------------------------------------------------------||


Verse Part I
G|------------------------------------------------------||
D|-----------------------------------------15-----------||
A|-151717171717-151717171717-15171717171715--15---------||
E|------------------------------------------------------||
                                                          x2
G|------------------------------------------------------||
D|------------------------------------------------------||
A|-151717171717-151717171717-15171717171715~------------||
E|------------------------------------------------------||


Verse Part II
G|-----------------------------------------15-----------||
D|-151717171717-151717171717-15171717171715--15---------||
A|------------------------------------------------------||
E|------------------------------------------------------||
                                                          x2
G|------------------------------------------------------||
D|-151717171717-151717171717-15171717171715~------------||
A|------------------------------------------------------||
E|------------------------------------------------------||


Pre Chorus
G|----------------------------------------1715----1715------||
D|--------------------------------------------1715----171517||
A|-151717171717-151717171717-151717171717-------------------||
E|----------------------------------------------------------||
                                                              x2
G|----------------------------------------------------------||
D|----------------------------------------------------------||
A|-151717171717-151717171717-15171717171715~----------------||
E|----------------------------------------------------------||


Chorus Part I
G|------------------------------------------------------||
D|------------------------------------------------------||
A|-1717171717171717-1313131313131313-1515151515151515---|| x4
E|------------------------------------------------------||


Chorus Part II
G|------------------------------------------------------||
D|------------------------------------------------------||
A|-1818181818181818-1414141414141414-1616161616161616---|| x4
E|------------------------------------------------------||


Post Chorus
G|------------------------------------------------------||
D|-----------------1313---------------------------------||
A|-1010131010131010-----1010131010131010----------------|| x4
E|------------------------------------------------------||

Keyboard Solo
G|------------------------------------------------------||
D|------------------------------------------------------||
A|-1717171717171717-1313131313131313-1515151515151515---|| x4
E|------------------------------------------------------||

Keyboard Solo Ending
G|-------------------------------------------------------||
D|-------------------------------------------------------||
A|-1818181818181818-1414141414141414-1616161616161616----|| x4
E|-------------------------------------------------------||


Verse 2 Part I
G|------------------------------------------------------||
D|-----------------------------------------15-----------||
A|-151717171717-151717171717-15171717171715--15---------||
E|------------------------------------------------------||
                                                          x2
G|------------------------------------------------------||
D|------------------------------------------------------||
A|-151717171717-151717171717-15171717171715~------------||
E|------------------------------------------------------||


Verse 2 Part II
G|-----------------------------------------15-----------||
D|-151717171717-151717171717-15171717171715--15---------||
A|------------------------------------------------------||
E|------------------------------------------------------||
                                                          x2
G|------------------------------------------------------||
D|-151717171717-151717171717-15171717171715~------------||
A|------------------------------------------------------||
E|------------------------------------------------------||


Pre Chorus
G|----------------------------------------1715----1715------||
D|--------------------------------------------1715----171517||
A|-151717171717-151717171717-151717171717-------------------||
E|----------------------------------------------------------||
                                                              x2
G|----------------------------------------------------------||
D|----------------------------------------------------------||
A|-151717171717-151717171717-15171717171715~----------------||
E|----------------------------------------------------------||


Chorus Part I
G|------------------------------------------------------||
D|------------------------------------------------------||
A|-1717171717171717-1313131313131313-1515151515151515---|| x4
E|------------------------------------------------------||


Chorus Part II
G|------------------------------------------------------||
D|------------------------------------------------------||
A|-1818181818181818-1414141414141414-1616161616161616---|| x4
E|------------------------------------------------------||


Ending
G|------------------------------------------------------||
D|-1717171717171717-131313131313131313-1515151515151515-||
A|------------------------------------------------------|| x4
E|------------------------------------------------------||

G|--------------||
D|-17~-13~-15~--||
A|--------------||
E|--------------||
            
Submit corrections

comments powered by Disqus
↑ Back to top | Children Of Bodom Bass for Aces High. Lyrics for acoustic guitar and electric guitar. 1 Tablatures and chords are parodies/interpretations of the original songs. You may use it for private study, scholarship, research or language learning purposes only