» » »

You Said Tabs (ver.2)

Artists:  A B C D E F G H I J K L M N O P Q R S T U V W X Y Z # 

You Said Tabs (ver.2)

Chikinki
Rating:
0/5 (0 votes)

Hard to play? Try these video lessons and learn fast.
                -------------------------------------------------------------------------------
                             YOU SAID by CHIKINKI
-------------------------------------------------------------------------------


Hi guys-there are no good tabs at all for this freakin good song,what a shame!! 
so i decided to do one for the guys rmembering this song as a rgeat one too!
99,9 % correct :] i just did the rhythm-part...coz the other one is more difficult lol...have fun



RHYTHM-GUITAR!

Tuning: standard

e|-D-U-X-U-D-U-D-X-----------------------------------------------------------|
B|-D-U-X-U-D-U-D-X-----------THATS THE STRUMMING-PATTERN THROUGH-------------|
G|-D-U-X-U-D-U-D-X----------------THE WHOLE SONG FOR EACH--------------------|
D|-D-U-X-U-D-U-D-X--------------------BARREE-CHORD :]------------------------|
A|-D-U-X-U-D-U-D-X-----------------------------------------------------------|
E|-D-U-X-U-D-U-D-X-----------------------------------------------------------|


Intro: 0:08 - 0:13

e|-6-----6-----8-----6-------------------------------------------------------|
B|-6-----8-----9-----8-------------------------------------------------------|
G|-6-----8-----10----8-------------------------------------------------------|
D|-8-----8-----10----8-------------------------------------------------------|
A|-8-----6-----8-----6-------------------------------------------------------|
E|-6-----6-----8-----6-------------------------------------------------------|


Verse: 0:14 - 0:38

e|-1-----2-----6-----4-----8------6-----6-----8~-----------------------------|
B|-2-----2-----7-----4-----9------6-----7-----9~-----------------------------|
G|-3-----3-----8-----5-----10-----6-----8-----10~----------2 TIMES PLAYED----|
D|-3-----4-----8-----6-----10-----8-----8-----10~----------------------------|
A|-1-----4-----6-----6-----8------8-----6-----8~-----------------------------|
E|-1-----2-----6-----4-----8------6-----6-----8~-----------------------------|


Bridge=Intro: 0:39 - 0:51

e|-6-----6-----8-----6-------------------------------------------------------|
B|-6-----8-----9-----8-------------------------------------------------------|
G|-6-----8-----10----8-----------------------------------2 TIMES PLAYED------|
D|-8-----8-----10----8-----------------------------------THEN THE VERSE------|
A|-8-----6-----8-----6----------------------------------------AGAIN----------|
E|-6-----6-----8-----6-------------------------------------------------------|



LEAD-GUITAR!

Bridge: 0:39 - 0:51

e|---------------------------------------------------------------------------|
B|-------------------------8-----------------------8/9-----------------------|
G|-------------6-----------------8-----------8-------------10------------10--|
D|-------------------8-----------------8--------------------------10---------|
A|-------8-------------------------------------------------------------------|
E|-6-------------------------------------------------------------------------|

e|---------------------------------------------------------------------------|
B|-8-------------------------------------------------------------------------|
G|-------8-----------8----------------------------------2 TIMES PLAYED-------|
D|-------------8-------------------------------------------------------------|
A|---------------------------------------------------------------------------|
E|---------------------------------------------------------------------------|



| /  slide up
| \  slide down
| h  hammer-on
| p  pull-off
| ~  vibrato
| +  harmonic
| x  Mute note
===============================================================================
            
Hard to play? Try these video lessons and learn fast. | Correct




comments powered by Disqus
↑ Back to top | Tablatures and chords are parodies/interpretations of the original songs. You may use it for private study, scholarship, research or language learning purposes only