» » »

Chikinki, You Said Tabs (ver.3)

Artists:  A B C D E F G H I J K L M N O P Q R S T U V W X Y Z # 

You Said Tabs (ver.3)

Chikinki Tabs
 Rating:
4/5 (4 votes)
You Said lessons Tabs too difficult? Try these video lessons and learn fast
1
                Chikinki - You Said



Intro:

played by synth

Verse1:
E|--------------------------1-4-6----------------|     
A|--8--8-6-4-3-1--1-3-4-3-1-------3-4-3-4h-3-1-0-|     
D|-----------------------------------------------|     
G|-----------------------------------------------|     
B|-----------------------------------------------|     
e|-----------------------------------------------| x2  
    
E|---------------------------------|                     
A|-----6-8----8--9-----9--8--------|                    
D|----6---8-------10-------8-------|                     
G|---8--------------10-------------|                     
B|--8------------------------------|                     
e|---------------------------------| x2                   x2

|--13--|                   
|--13--|                  
|--15--|                
|--15--|                
|--13--|              
|--13--|

Chorus:

E|---6---6---8----6---|                    
A|---6---8---9----8---|                   
D|---6---8---10---8---|                   
G|---8---8---10---8---|                  
B|---8---6---8----6---|                
e|---6---6--------6---|  x4

Verse2:

E|---6---2---3---8---|                     
A|---6---2---4---9---|                   
D|---6---5---5---10--|                   
G|---8---4---5---10--|                  
B|---8---4---3---8---|                
e|---6---2---3-------|  x2

E|---------------------------------|                     
A|-----6-8----8--9-----9--8--------|                    
D|----6---8-------10-------8-------|                     
G|---8--------------10-------------|                     
B|--8------------------------------|                     
e|---------------------------------| x2   
                
 |--13--|                   
 |--13--|                  
 |--15--|                
 |--15--|                
 |--13--|              
 |--13--|




Chorus:
E|---6---6---8----6---|                    
A|---6---8---9----8---|                   
D|---6---8---10---8---|                   
G|---8---8---10---8---|                  
B|---8---6---8----6---|                
e|---6---6--------6---| x4

Bridge: lalalalalalala lalalalalala lalalalalala lalalalalala

Chorus:

E|---6---6---8----6---|                    
A|---6---8---9----8---|                   
D|---6---8---10---8---|                   
G|---8---8---10---8---|                  
B|---8---6---8----6---|                
e|---6---6--------6---| x4

Ending:

E|------------|---|
A|--8-8--9-9--|-6-|
D|------------|---|
G|------------|---|
B|------------|---|
e|------------|---|
           x14
            
Submit corrections

comments powered by Disqus
↑ Back to top | Chikinki Tabs for You Said. Lyrics for acoustic guitar and electric guitar. 1 Tablatures and chords are parodies/interpretations of the original songs. You may use it for private study, scholarship, research or language learning purposes only