» » »

Chicosci, Sweet Maria Tabs (ver.2)

Artists:  A B C D E F G H I J K L M N O P Q R S T U V W X Y Z # 

Sweet Maria Tabs (ver.2)

Chicosci Tabs
 Rating:
4/5 (4 votes)
Sweet Maria lessons Tabs too difficult? Try these video lessons and learn fast
1
                Album:Chicoci
              09229015724(Sun Cell) 


Gtr.Legends:
~ - LET IT RING
. - PALM MUTING
x - DEAD STRING

Gtr.Tuning:1/2 Step Down then Drop d

Intro:
eb|--------------|
Bb|--------------|
Gb|-4~--4~--4~---|
Db|-4~--4~--4~---|
Ab|-2~--2~--2~---|
Db|--------------|

Verse:
eb|-----------------|
Bb|-----------------|
Gb|-444444----------| 2x
Db|-444444-666666---|
Ab|-222222-666666---|
Db|--------666666---|

Pre-Chorus:
eb|----------------------------------------------|
Bb|----------------------------------------------|
Gb|----------------------------------------------|
Db|-2~--4~--6~-4~--222222-444444-666666-666666---|
Ab|-2~--4~--6~-4~--222222-444444-666666-666666---|
Db|-2~--4~--6~-4~--222222-444444-666666-666666---|
                   .....  .....   .....  .....

Chorus 1:
eb|---------------------------|
Bb|---------------------------|
Gb|-444444--------------------|
Db|-444444-444444-666666-4~---|
Ab|-222222-444444-666666-4~---|
Db|--------444444-666666-4~---|

Repeat Verse w/Palm muting:

Repeat Pre-Chorus:

Chorus:
eb|-------------------------------|
Bb|-------------------------------|
Gb|-444444------------------------| 2x
Db|-444444-444444-666666-444444---|
Ab|-222222-444444-666666-444444---|
Db|--------444444-666666-444444---|

Bridge prt.1:
eb|-----------------------------|
Bb|-----------------------------|
Gb|-44444-666666-888888-66666---| 2x
Db|-22222-444444-666666-44444---| 
Ab|-22222-444444-666666-44444---|
Db|-22222-444444-666666-44444---|

Bridge prt.2:
Gtr.1
eb|-------------------------------|
Bb|-------------------------------|
Gb|-------------------------------|
Db|-222222-444444-666666-666666---|
Ab|-222222-444444-666666-666666---|
Db|-222222-444444-666666-666666---|
     ..... .....   .....  .....

Gtr.2:
eb|-------------------------------|
Bb|-------------------------------|
Gb|-4-8-6-4-3-4-3~--4-11-4-11-4---|
Db|-x-x-x-x-x-x-x---x--x-x--x-x---|
Ab|-2-6-4-2-1-2-1~--2--9-2--9-2---|
Db|-------------------------------|

                       Play this part really fast....
eb|-----------------------------------------------------------------------|
Bb|-----------------------------------------------------------------------|
Gb|-4-4-6-4-3-4-3~-4---12-10-9-10--14-12-11-12-11-10----------------------|
Db|-x-x-x-x-x-x-x--x------------------------------------------------------|
Ab|-2-6-4-2-1-2-1~-2----------------------------------9-7-6-7-9-7-6-4-2---|
Db|-----------------------------------------------------------------------|

Last Part of the Bridge:
eb|-----------------------------------------------------|
Bb|-----------------------------------------------------|
Gb|-----------------------------------------------------|
Db|---------------------------------4------6-------4~---|
Ab|-222222-444444--666666666--22222-4-4444-6-66666-4~---|
Db|-222222-444444--666666666--22222-4-4444-6-66666-4~---|
    xxxxxx xxxxxx  xxxxxxxxx  xxxxx   xxxx   xxxxx

Repeat Chorus 2:

Last Chord:
eb|------|
Bb|------|
Gb|-4~---|
Db|-4~---|
Ab|-4~---|
Db|-4~---|

End...


Sweet Maria Lyrics

Verse 1:
Bless this night
I’m entering the fold
With everything to lose
Let me be ready for the end
With both guns blazing
Nothing can stop this war tonight
And you’ll be my shelter
Your suicide kisses will be mine

Chorus:
Sweet Maria,
Guide these bullets in the air
Beautiful clash, I’m a blinded fool again
Now I’ll be cut and bruised
My landmines valentine
These silver bullets will open your eyes
And I’ll be here, breathing
Your suicide kisses will be mine

Sweet Maria,
Guide these bullets in the air
Sweet Maria,
Grace this moment hear my prayer
I feel you beside me
Touch me, I tremble
My final dance,
This means everything,
Everything to me


  I would like to greet first offcourse my ONLY ONLY ONE,then;my relatives,my
friends on Montalban(Brgy.Balite Espiritu Subd.),My traitor friends in our school
NSDAPS San Mateo Rizal,Cocklosas,Cocklisay.Cocktabijan,Cockpistrano,Cockyatano,Cockruz,
Franciscock,Picock,f**kmittan,Redick,Simbulbulan,Frondosuso,Bayagin,Titesta,Aldick,and many
moore,our band club(COMBO-RATS),Project X,To all my txt mates and other companie,Red Porn Records,
My friends in YM and Friendster,and most of all,hi to God..

Padre Garrote:          Extra:

Dino Testa:Vocals       Andrei Frondoso:Xylophone,Triangles,Flute and Tamborine           
Edy Capistrano:Gtr.1    Mike Alvez:Sub-Guitar                               
Jiro Uezono:Gtr.2      
Ryan Manongdo:Bass       
Aeroll Cayetano:Drums   
            
Submit corrections

comments powered by Disqus
↑ Back to top | Chicosci Tabs for Sweet Maria. Lyrics for acoustic guitar and electric guitar. 1 Tablatures and chords are parodies/interpretations of the original songs. You may use it for private study, scholarship, research or language learning purposes only