» » »

Chicosci, Sweet Maria Tabs (ver.1)

Artists:  A B C D E F G H I J K L M N O P Q R S T U V W X Y Z # 

Sweet Maria Tabs (ver.1)

Chicosci Tabs
 Rating:
4/5 (4 votes)
Sweet Maria lessons Tabs too difficult? Try these video lessons and learn fast
1
                                                   Sweet Maria
                                    Chicosci
                                    Chicosci



 Like to greet to ganda_qw kasi sobrang galing nya..Walang ibang magawa kundi mang okray!
Hindi mo malaman kung na iingit lang talaga.Wala kasing perfect na tao dba.Kaya kung ako
dude maglinis kan*lang ng banyo nyo para may kwenta ka sa mundo!!! ^_^ 



Gtr.Legends:
 . - palm mute
 ~ - let it ring
 h - hammer on
 b - bend
 / - slide
 x - dead note

Drop D Tuning


Intro:

Both Guitars:
e|----------------------------|
B|----------------------------|
G|----------------------------|
D|-0h8~-0h8~-0h8~-0h8~--------|
A|-0h8~-0h8~-0h8~-0h8~--------|
D|-0h8~-0h8~-0h8~-0h8~--------|


Verse:"Bless this night.."

Guitar 1:
e|----------------------------|
B|----------------------------|
G|----------------------------|
D|-88888888888-555555555555---|
A|-88888888888-555555555555---|
D|-88888888888-555555555555---|
   ........... ............

Guitar 2:Under Construction



Pre chorus:

Guitar 1:
e|----------------------------------------------|
B|----------------------------------------------|
G|----------------------------------------------|
D|-1~---3~---888-777-5~---777-555-3-------------|
A|----------------------------------------------|
D|----------------------------------------------|
             ... ...      ... ...

e|----------------------------------------------|
B|----------------------------------------------|
G|----------------------------------------------|
D|-1~---3~---888-777-55-888-777-55-777-555-3~---|
A|----------------------------------------------|
D|----------------------------------------------|
             ... ... .. ... ... .. ... ...


Guitar 2:
e|----------------------------------------------|
B|-4~---5~--------------------------------------|
G|-3~---4~--------------------------------------|
D|-1~---3~---5555555555555555-3333333333333333--|
A|-1~---3~---5555555555555555-3333333333333333--|
D|-1~---3~---5555555555555555-3333333333333333--|
             ................ ................

e|----------------------------------------------------------------------|
B|----------------------------------------------------------------------|
G|-3----------------5----------------7----------------5-----------------|
D|-1111111111111111-3333333333333333-5555555555555555-3333333333333333--|
A|-1111111111111111-3333333333333333-5555555555555555-3333333333333333--|
D|-1111111111111111-3333333333333333-5555555555555555-3333333333333333--|
    ...............   ..............   ..............   ..............


Chorus:
Both Guitars:
e|---------------------------------------------------------|
B|---------------------------------------------------------|
G|-1010101010101010101010--555555555555555-7777777777------|
D|--8-8-8-8-8-8-8-8-8-8-8--333333333333333-5555555555--3~--|
A|--8-8-8-8-8-8-8-8-8-8-8--333333333333333-5555555555--3~--|
D|--8-8-8-8-8-8-8-8-8-8-8--333333333333333-5555555555--3~--|
                          

Repeat verse
Repeat pre chorus
Repeat chorus 2x

Bridge part 1:

Guitar 1:
e|----------------------------------|
B|---------------------8~------6~---|
G|------3b------5b-----7~------5~---|
D|-1111----3333----55555~--33333~---|   2x
A|-1111----3333----55555~--33333~---|
D|-1111----3333----55555~--33333~---|
   ....    ....    ....    ....

Guitar 2:
e|----------------------------------|
B|-----4~------6~-------8~------6~--|
G|-----3~------5~-------7~------5~--|
D|-11111~--33333~---55555~--33333~--|   2x
A|-11111~--33333~---55555~--33333~--|
D|-11111~--33333~---55555~--33333~--|
   ....    ....     ....    ....


Guitar 1:
e|---------------------------------------------|
B|---------------------------------------------|
G|--3-7-5-3-2-3-2-3~--3/10-3/10-3--------------|
D|--x-x-x-x-x-x-x-x~--x/-x-x/-x-x--------------|
A|--1-5-3-1-0-1-0-1~--1/-8-1/-8-1--------------|
D|---------------------------------------------|

                       Very fast part
e|---------------------------------------------------------------|
B|---------------------14-12-11-12-14-12-11-12-------------------|
G|--3-7-5-3-2-3-2-3~---------------------------------------------|
D|--x-x-x-x-x-x-x-x~----------------------------3-1-0---1-0------|
A|--1-5-3-1-0-1-0-1~----------------------------------3-----3-1--|
D|---------------------------------------------------------------|
                                                . . . . . . . .
            
Guitar 2:
e|---------------------------------------------------------------------|
B|---------------------------------------------------------------------|
G|---------------------------------------------------------------------|
D|-1111111111111111-3333333333333333-5555555555555555-3333333333333333-| 2x
A|-1111111111111111-3333333333333333-5555555555555555-3333333333333333-|
D|-1111111111111111-3333333333333333-5555555555555555-3333333333333333-|
  


Bridge part 2:
e|-----------------------------------------------------|
B|-----------------------------------------------------|
G|-----------------------------------------------------|
D|---------------------------------3------5-------3~---|
A|-111111-333333--555555555--11111-3-3333-5-55555-3~---|
D|-111111-333333--555555555--11111-3-3333-5-55555-3~---|
   ...... ......  .........  .....   ....   .....


Repeat chorus:W/Blazing Fast Palm mute


Last Chords:
e|------|
B|------|
G|--5~--|
D|--3~--|
A|--3~--|
D|--3~--|

End
            
Submit corrections

comments powered by Disqus
↑ Back to top | Chicosci Tabs for Sweet Maria. Lyrics for acoustic guitar and electric guitar. 1 Tablatures and chords are parodies/interpretations of the original songs. You may use it for private study, scholarship, research or language learning purposes only