» » »

Chicosci, Last Look Tabs (ver.3)

Artists:  A B C D E F G H I J K L M N O P Q R S T U V W X Y Z # 

Last Look Tabs (ver.3)

Chicosci Tabs
 Rating:
4/5 (4 votes)
Last Look lessons Tabs too difficult? Try these video lessons and learn fast
                Band: Chicosci


verse 1: and verse 2:

|--------------------------------------------|
|--------------------------------------------|
|--------------------------------------------|
|-9-9-9-h-11-11-11-11--9-9-9-h-11-11-11-11---|
|-7-7-7------7--7--7---7-7-7------7--7--7----|
|-7-7-7------7--7--7---7-7-7------7--7--7----|


|--------------------------------------------|
|--------------------------------------------|
|--------------------------------------------|
|-6-6-6-h-7-7-7-7----6-6-6-h-7-7-7-----------|
|-4-4-4-----4-4-4----4-4-4---4-4-4-----------|
|-4-4-4-----4-4-4----4-4-4---4-4-4-----------|


pre-chorus



|--------------------------------------------|
|--------------------------------------------|
|----------------------------3x--------------|
|-2-2-2-2-2-2---4-4-4-4-4-4----------4~------|
|-2-2-2-2-2-2---4-4-4-4-4-4----------4~------|
|-2-2-2-2-2-2---4-4-4-4-4-4----------4~------|

Chorus:

|--------------------------------|
|--------------------------------|
|--------------------------------|
|-9-------6-------4--------------|
|-7-------4-------2--------------|
|-7-------4-------2--------------|

repeat verse
repeat pre- chorus
repeat chorus


*before bridge:
|--------------------------------|
|--------------------------------|
|--------------------------------|
|-4-4-4-4-4-4-4-4-4--------------|
|-2-2-2-2-2-2-2-2-2--------------|
|-2-2-2-2-2-2-2-2-2--------------|

Bridge:

|---------------------------------------------------------------|
|---------------------------------------------------------------|
|-7-7-7-7-7--9-9-9-9-9------------------------------------------|
|-7-7-7-7-7--9-9-9-9-9---9-9-9-h-11-11-11-11--6-6-6-h-7-7-7-7---|
|-5-5-5-5-5--7-7-7-7-7---7-7-7------7--7--7---4-4-4-----4-4-4---|
|------------------------7-7-7------7--7--7---4-4-4-----4-4-4---|

|--------------------------------|
|--------------------------------|
|-7~----9~-----------------------|
|-7~----9~-----------------------|
|-5~----7~-----------------------|
|--------------------------------|

repeat verse

last chords
|----------|
|----------|
|----------|
|---9~-----|
|---7------|
|---7~-----|




Verse 1:
Can I be a little selfish
And swear I’ll come back home to you
Our heads turn, the last kiss…
Make me yours and kill me with your stare

Pre-Chorus 1:
Leaves shaking, let’s follow
I’m staying with you angel
Til the fear dies, I won’t let go

Chorus 1:
So far away, one last look
It’s the same thing as before
So far away, one last look

Verse 2:
How could you just take me
A silent frame, a heart I fell into
Let’s pray for the violence, 
It’s just another requiem

Pre-Chorus 2:
Leave shaking, let’s follow
I’m staying with you angel
‘Til the fear dies, I won’t let go

Repeat Chorus:

Chorus 2:
So far away, one last look
It’s the same thing as before
So far away, one last look
Til we sleep forever

Bridge:
A love in wait
I’ll watch you go
We lie in state
(I’ll watch you go)
            
Submit corrections

comments powered by Disqus
↑ Back to top | Chicosci Tabs for Last Look. Lyrics for acoustic guitar and electric guitar. Tablatures and chords are parodies/interpretations of the original songs. You may use it for private study, scholarship, research or language learning purposes only