» » »

Last Look Tabs (ver.2)

Artists:  A B C D E F G H I J K L M N O P Q R S T U V W X Y Z # 

Last Look Tabs (ver.2)

Chicosci
Rating:
4/5 (3 votes)

Hard to play? Try these video lessons and learn fast.
                album:chicosci


tuning: drop d
guitar legends:
   ~ - let it ring
   . - palm muting
   h - hammer on
   X - dead string

intro: drumbeats (snare drums yata ung gamit sa intro)

verse:
   Gtr 1:
     e|---------------------------------------|
     B|---------------------------------------|
     G|---------------------------------------|
     D|--777777--777777--444444--444444-------| (2x)
     A|--777777--777777--444444--444444-------|
     D|--777777--777777--444444--444444-------|
         ......  ......  ......  ......
   Gtr 2:
     e|-------------------------------------------------|
     B|--0000h2222--0000h2222---------------------------|
     G|------------------------1--1111h2222--1111h2222--|
     D|-------------------------------------------------| (2x)
     A|-------------------------------------------------|
     D|-------------------------------------------------|

pre-chorus:
   Gtr 1:
     e|--------------------|      |-------|
     B|--------------------|      |-------|
     G|--------------------|      |-------|
     D|--222222--444444----| (3x) |--2----|
     A|--222222--444444----| then |--2----|
     D|--222222--444444----|      |--2----|
         ......  ......              .
   Gtr 2:
     e|--------------------|      |-------|
     B|--------------------|      |-------|
     G|--------------------|      |-------|
     D|--2~--4~------------| (3x) |--2~---|
     A|--2~--4~------------| then |--2~---|
     D|--2~--4~------------|      |--2~---|

chorus:
   Gtr 1:
     e|------------------------------------|
     B|------------------------------------|
     G|------------------------------------|
     D|--777777--444444--222222--222222----| (2x)
     A|--777777--444444--222222--222222----|
     D|--777777--444444--222222--222222----|

   Gtr 2: (mga friends,,,15% sure lang ako sa tab na ito sa chorus...)
     e|------8---8---8---8-----8---8---8--8-|
     B|----6---6---6---6-----6---6---6--6---|
     G|--6-----------------5----------------|
     D|-------------------------------------| (repeat hanggang matapos
     A|-------------------------------------|               ung chorus)
     D|-------------------------------------|

repeat verse
repeat pre-chorus
repeat chorus

before bridge:
   Gtr 1 & Gtr 2:
     e|------------------|
     B|------------------|
     G|------------------|
     D|--2222222222------|
     A|--2222222222------|
     D|--2222222222------|
       "sleep forever..."

bridge:
   Gtr 1:
     e|----------------------------------|
     B|----------------------------------|
     G|--777777--999999------------------|
     D|--777777--999999--777777--444444--| (2x)
     A|--555555--777777--777777--444444--|
     D|------------------777777--444444--|
    "a love in wait...we'll lie in state..."
   Gtr 2:
     e|--222222--000000--000000--222222--|
     B|--333333--000000--222222--222222--|
     G|--222222--111111--222222--222222--|
     D|--000000--222222--222222--444444--| (2x)
     A|--XXXXXX--222222--000000--444444--|
     D|--XXXXXX--000000--XXXXXX--XXXXXX--|
    "a love in wait...we'll lie in state..."

then...
   Gtr 1:
     e|------------|
     B|------------|
     G|--7~--9~----|
     D|--7~--9~----| then do verse tab 4 times
     A|--5~--7~----|
     D|------------|
      "a love in wait...I watch you go!"
   Gtr 2:
     e|------------|
     B|------------|
     G|--7~--9~----|
     D|--7~--9~----| then do chorus tab 4 times
     A|--5~--7~----|
     D|------------|
      "a love in wait...I watch you go!"

Outro:
   Gtr 1:
     e|--------17-16-12-------17-16~--|
     B|--17-16----------17-16---------|
     G|-------------------------------|
     D|-------------------------------|
     A|-------------------------------|
     D|-------------------------------|
   Gtr 2:
     e|-------------------------------------------------|
     B|--0000h2222--0000h2222---------------------------|
     G|------------------------1--1111h2222--1111h2222--|
     D|-------------------------------------------------| (2x)
     A|-------------------------------------------------|
     D|-------------------------------------------------|

bale ang last chord nung gtr 1 at gtr 2 ay...
   Gtr 1:          Gtr 2:
     e|--16~--|       e|-------|
     B|-------|       B|--2~---|
     G|-------|       G|-------|
     D|-------|       D|-------|
     A|-------|       A|-------|
     D|-------|       D|-------|

____________________________________________________________________________

               LYRICS

   Can I be a little selfish
   And I swear that I'll come back home to you
   Our heads turn,the last kiss
   Make me yours and kill me with your step
Pre-Chorus:
   Leaves shaking,let's follow
   I'm staying with you ,angel
   The fear dies
   I won't let go (I won't let go)
Chorus:
   So far away,one last look
   It's the same thing as before
   Am I too late,one last look

   How could you just take me
   A silent frame,my heart had fell into
   Let's pray for the violence
   3:47,it's just another requiem
Pre-Chorus:
   Leaves shaking,let's follow
   I'm staying with you,angel!
   'Til the fear dies
   I won't let go (I won't let go)
Chorus:
   So far away,one last look
   It's the same thing as before
   Am I too late,one last look
   'Til we sleep forever (2x)
Before Bridge:
   Sleep forever!!!
Bridge:
   A love in wait,I watch you go
   We'll lie in state,I watch you go
   A love in wait...I watch you go!!!
   I watch you go!!!

   (I watch you go!)Can I be a little selfish
   And I swear that I'll Come back home to you
   (I watch you go!)Let's pray for the violence
   3:47,it's just another requiem
____________________________________________________________________________

   uhmmm...un po yung kapa ko sa last look ng chicosci...sana magustuhan niyo po 
di lang po ako sure dun sa tab na gawa ko para sa Gtr 2
dun sa chorus...baka po mali un...paki tama na lang...pero ung iba,92% sure
ako...i-rate niyo na lang po ito...salamat...
____________________________________________________________________________

   Un na lang po...ingats na lang kayong lahat...
Mabuhay Philippines!XD
            
Hard to play? Try these video lessons and learn fast. | Correct




comments powered by Disqus
↑ Back to top | Tablatures and chords are parodies/interpretations of the original songs. You may use it for private study, scholarship, research or language learning purposes only