» » »

Diamond Shotgun Tabs (ver.3)

Artists:  A B C D E F G H I J K L M N O P Q R S T U V W X Y Z # 

Diamond Shotgun Tabs (ver.3)

Chicosci
Rating:
4/5 (10 votes)

Hard to play? Try these video lessons and learn fast.
                D KO Maintindihan ung isang tab neto pero sure ako d2 na tama toh...\m/

Intro
Guitar I.
d|--------------------------------------|
A|--------------------------------------|
F|-9-9----1111------9-9------9-9--------|
C|--x-x-xx--x-x--xx--x-x-xx--x-x-xx-----|
G|--7-7-xx--7-7--xx--7-7-xx--7-7-xx-----|
C|------xx-------xx------xx------xx-----|

Verse
Guitar I.
Same as Intro


GTR II
Guitar II.
d|------------------------------------|    
A|------------------------------------|
F|-------4--6---4---------------------|
C|--2----4--6---4---------------------|
G|--2----2--4---2---------------------|
C|--2---------------------------------|
 
kayo na bahala sa struming xD
 o kaya eto 

Guitar II.
d|------------------------------------|
A|------------------------------------|
F|------------------------------------|
C|--2------9--11--9-------------------|
G|--2------9--11--9-------------------|
C|--2------9--11--9-------------------|




CHORUS
GTRI
Guitar II.
d|---------------------------------------|
A|---------------------------------------|
F|-888888-1010-1111111111-13131313--8-10-|
C|-xxxxxx--x-x--x-x-x-x-x-xxxxxxxx--x--x-|
G|-666666--8-8--9-9-9-9-9-11111111--6--8-|
C|---------------------------------------|
tas intro ulit

Guitar II.
d|--------------------------|
A|--------------------------|
F|-6--------4---------------|
C|-6---2----4---------------|
G|-4---2----2---------------|
C|-----2--------------------|

Guitar II.
d|---------------------|
A|---------------------|
F|-----4--6------------|
C|-----4--6---2--------|
G|-----2--4---2--------|
C|------------2--------|

pde din toh Guitar II.
d|----------------------------|
A|----------------------------|
F|----------------------------|
C|-11----2---9----------------|
G|-11----2---9----------------|
C|-11----2---9----------------|


Guitar II.
d|-----------------|
A|-----------------|
F|-----------------|
C|-----9---11--2---|
G|-----9---11--2---|
C|-----9---11--2---|


tapos 
GtarI 
Blik sa Intro 

ung gtarII
Guitar II.
A|-------------|
F|-------------|
C|--2----------|
G|--2----------|
C|--2----------|

kantohan nyo nlng 
XD 


Verse II 
GTRI
d|----------------------------|
A|----------------------------|
F|--2-------2-----------------|
C|-----3--------3-3-4h4p3-----|
G|--4-----4-------------------|
C|----------------------------|

GTR II
ung unang verse tab dn 

tapos ung part after nung Break the silence Diamond shotgun 

GtrI 
Intro Ulet 
Tas Ung GtrII 
d|--------|
A|--------|
F|--------|
C|----2---|
G|----2---|
C|----2---|

tas Puro Intro Nlng Ung GtrI hanggang mag chorus 
tas ung Gtar II naman ung gagawa nto 
d|----------------------------|
A|----------------------------|
F|--2-------2-----------------|
C|-----3--------3-3-4h4p3-----|
G|--4-----4-------------------|
C|----------------------------|


TAs BACK SA CHORUS

tas ung Bridge

GtrI
d|--------------------------------------|
A|--------------------------------------|
F|-9-9----1111------9-9------9-9--------|
C|--x-x-xx--x-x--xx--x-x-xx--x-x-xx-----|
G|--7-7-xx--7-7--xx--7-7-xx--7-7-xx-----|
C|------xx-------xx------xx------xx-----|

Guitar II
d|-----------------------|
A|-----------------------|
F|-----------------------|
C|-2--22---2-2-222-2-----|
G|-2--22---2-2-222-2-----|
C|-2--22---2-2-222-2-----|
   .  ..   . . ... .

(Lock And Load BabY Let's Go!!!)


Bridge 2
Guitar I.                                      Guitar II. suddenly enters
d|-------------------------------------------  -9-9-9--9-----|
A|-2------2------2------2-----2------2-------  -7-7-7--9-----|
F|---3------3------3------3-----3------3-----  --------------|
C|-----4------4------4------4-----4------4---  --------------|
G|-------------------------------------------  --------------|
C|-------------------------------------------  --------------|

Tas
CHORUS ULIT 
AFTER NUN Balik Sa BRIDGEI 
Ung Me Lock And LOad Baby Lets Go

Aun 

TAPOS 
MGA PREH SENSYA KUNG MEJO MAGULO TABS 1St Tym Ehh 
Pero SURE AKO TAMA HALOS LAHAT YAN 
HALOS AA NDE LAHAT XD
BYE xD
            
Hard to play? Try these video lessons and learn fast. | Correct




comments powered by Disqus
↑ Back to top | Tablatures and chords are parodies/interpretations of the original songs. You may use it for private study, scholarship, research or language learning purposes only