» » »

Chicosci, Diamond Shotgun Tabs (ver.2)

Artists:  A B C D E F G H I J K L M N O P Q R S T U V W X Y Z # 

Diamond Shotgun Tabs (ver.2)

Chicosci Tabs
Rating:
3/5 (2 votes)
Diamond Shotgun lessons Tabs too difficult? Try these video lessons and learn fast
                Diamond Shotgun(Lock and Load) by Chicosci


 Hi guys^^ Sorry if my tab has few errors. Please bare with me!
I'm just 8 years old from Palawan. ThnKx


Notes^^

is your friend as well)^^. Please lsiten very carefully. This tab isn't in order but the 
has a lot
of repetitions. That's all^___^

May the devil bless you guys\m/

Keys

~ ring or vibrato
. mute
x dead note or scratching
b bend
h hammer on
p pull off

Tuning

DROP C  dAFCGC

Intro
Guitar I.
d|--------------------------------------|
A|--------------------------------------|
F|-1111----1111-----1111----1111--------|
C|--x-x-xx--x-x--xx--x-x-xx--x-x-xx-----|
G|--9-9-xx--9-9--xx--9-9-xx--9-9-xx-----|
C|------xx-------xx------xx------xx-----|

Verse
Guitar I.
Same as Intro


Guitar II.
d|--------------------------------------|
A|--------------------------------------|
F|-666666-6666-8888-6----------88888----|
C|-444444-6666-8888-6---444444-88888----|
G|-444444-4444-6666-4---444444-66666----|
C|-444444---------------444444----------|

Pose Verse
Guitar I.
d|---------------------------------|
A|---------------------------------|
F|---------------666666------------|
C|-111111-444444-666666---1-3-4----|
G|-111111-444444-444444---1-3-4----|
C|-111111-444444----------1-3-4----|

Guitar II.
d|-------------------------------------------------------------------------------|
A|-------------------------------------------------------------------------------|
F|-888888-1010-1111111111-13131313--8-10-1111----1111----1111----1111----1111----|
C|-xxxxxx--x-x--x-x-x-x-x-xxxxxxxx--x--x--x-x-xx--x-x-xx--x-x-xx--x-x-xx--x-x----|
G|-666666--8-8--9-9-9-9-9-11111111--6--8--9-9-xx--9-9-xx--9-9-xx--9-9-xx--9-9----|
C|--------------------------------------------xx------xx------xx------xx---------|

--------------------------------------|
--------------------------------------|
-1111----1111-----1111----1111--------|
--x-x-xx--x-x--xx--x-x-xx--x-x-xx-----|
--9-9-xx--9-9--xx--9-9-xx--9-9-xx-----|
------xx-------xx------xx------xx-----|


Verse 3
Guitar I.
d|--------------------------------------|
A|--------------------------------------|
F|-666666-6666-8888-6----------88888----|
C|-444444-6666-8888-6---444444-88888----|
G|-444444-4444-6666-4---444444-66666----|
C|-444444---------------444444----------|

Guitar II.
d|-----------------------------|
A|----2---------2--------------|
F|-------3~-------3-3-3h4p3----|
C|--4---------4----------------|
G|-----------------------------|
C|-----------------------------|

Bridge
Guitar I
d|-----------------------|
A|-----------------------|
F|-----------------------|
C|-4--44---4-4-444-4-----|
G|-4--44---4-4-444-4-----|
C|-4--44---4-4-444-4-----|
   .  ..   . . ... .

Guitar II.
d|-----------------------|
A|-----------------------|
F|-111111111111111111----|
C|--x-x-x-x-x-x-x-x-x----|
G|--9-9-9-9-9-9-9-9-9----|
C|-----------------------|

Guitar III.
d|-13131313131313131313--16----14----13----------|
A|-11111111111111111113-----------11----12-14----|
F|--------------------------15-------------------|
C|-----------------------------------------------|
G|-----------------------------------------------|
C|-----------------------------------------------|


Bridge 2
Guitar I.                                      Guitar II. suddenly enters
d|-------------------------------------------  -9-9-9--9-----|
A|-2------2------2------2-----2------2-------  -7-7-7--9-----|
F|---3------3------3------3-----3------3-----  --------------|
C|-----4------4------4------4-----4------4---  --------------|
G|-------------------------------------------  --------------|
C|-------------------------------------------  --------------|

Guitar I.
d|--------------------------------------------------------|
A|--------------------------------------------------------|
F|-666666-66666-44444----------666666-66666-888888888-----|
C|-444444-66666-44444---111111-444444-66666-888888888-----|
G|-444444-44444-22222---111111-444444-44444-666666666-----|
C|-444444---------------111111-444444---------------------|


Outro
Guitar I
d|-----------------------|
A|-----------------------|
F|-----------------------|
C|-4--44---4-4-444-4-----|
G|-4--44---4-4-444-4-----|
C|-4--44---4-4-444-4-----|
   .  ..   . . ... .

Guitar II.
d|-----------------------|
A|-----------------------|
F|-111111111111111111----|
C|--x-x-x-x-x-x-x-x-x----|
G|--9-9-9-9-9-9-9-9-9----|
C|-----------------------|

Yaaaaaaaaaaaaaaaaaaaayyyy!! DONEEE^^

Diamond Shotgun (Lock & Load)

blow out the candles,
dust off the knives, we fight
say a prayer for us,
they call us The Forgotten
we'll cross all their lines
we'll be the thorn in their side
a hail of bullets
we stand tall, stand tall

fly black hearts
into the sky
we're never meant to fall
and we'll touch all the lost stars

we're ghosts so they say
just burn their truths to the ground
we're marching on and on
we're not ones to run away
so we hold hands
and watch the setting of their sun
break the silence
diamond shotgun
no time to waste
we're gonna shout it out
we're gonna shout it out

fly black hearts
into the sky
we're never meant to fall
and we'll touch all the lost
start to see, start to feel
fly black hearts
into the sky
we're never meant to fall
and we'll touch all the lost stars

LOCK AND LOAD
BABY LET'S GO!
            
Submit corrections

comments powered by Disqus
↑ Back to top | Chicosci Tabs for Diamond Shotgun. Lyrics for acoustic guitar and electric guitar. Tablatures and chords are parodies/interpretations of the original songs. You may use it for private study, scholarship, research or language learning purposes only