>
 >
An Argument

An Argument Guitar Tabs

Chicosci - An Argument chords, tabs, tablatures, lyrics

Guitar lessons | Add/correct | Request | Top 50 tabs Artists:  A B C D E F G H I J K L M N O P Q R S T U V W X Y Z 0-9

An Argument Guitar Tabs – Chicosci

CD, Sheet music, Poster

Do you like An Argument? Share with your friends now
TabsTabs v2
Album:Icarus
              09229015724(Sun Cell) 

       
Gtr.Legends:
. - PALM MUTING
x - DEAD STRING
~ - LET IT RING
/ - SLIDE
b - BEND

Gtr.Tuning:Drop d

Verse:
Gtr.1:                    
e|---------------------|
B|-33-3-33---33-3-33---| Listen to the song
G|-44-4-44---44-4-44---| for timing....
D|---------------------|
A|---------------------|
D|---------------------|
   .. . ..   .. . ..

Gtr.2:
e|------------------------------------------|
B|-------7~--------7~------------------7~---|
G|---5-7-------5-7------5-7--------5-7------| 2x
D|-5---------5--------5-----7~---5----------| Then Pause
A|------------------------------------------|
D|------------------------------------------|
                           
e|------------------------------------------|
B|--------------5-7-9---------------5-7-9---|
G|-4-2---4-2-----------4-2--4-2-------------|
D|-----4-----4~------------4----4~----------|
A|------------------------------------------|
D|------------------------------------------|
                . . .               . . .

Repeat Verse:

Pre-Chorus:
Gtr.1                                      Gtr.2
e|---------------------------------------  ---------|
B|---------------------------------------  ---------|
G|-4-2---4-2---4-2---4-2---4-2---4-2-----  ---------|
D|-----4-----4-----4-----4-----4-----4~--  -4~-5~---|
A|---------------------------------------  -4~-5~---|
D|---------------------------------------  -4~-5~---|

Chorus:
Gtr.1:
e|----------------------------------------------------------------|
B|----------------------------------------------------------------|
G|----------------------------------------------------------------|
D|-222222222222222--5-7-9--5-7-9--5-7-9--5-7-9--5-7-9--5-7-9-5~---|
A|-222222222222222------------------------------------------------|
D|-222222222222222------------------------------------------------|
                    . . .  . . .  . . .  . . .  . . .  . . . .

Gtr.2:
e|--------------------------------------------------------------------------------|
B|-x7-x7-x7-x7-x7-x7-x7--------9/10-7--------9/10-7--------9/10-7--------9/10-7---| 
G|-----------------------4-5-7---------4-5-7---------4-5-7---------4-5-7----------|
D|--------------------------------------------------------------------------------|
A|--------------------------------------------------------------------------------|
D|--------------------------------------------------------------------------------|

Gtr.1:            Gtr.2      
e|--------------  ----------------------------|
B|--------------  --x7-x7-x7-x7-x7-x7-x7-x7---|
G|--------------  ----------------------------|
D|-22222222222--  ----------------------------|
A|-22222222222--  ----------------------------|
D|-22222222222--  ----------------------------|

Repeat Verse:

Repeat Pre-Chorus:

Repeat Chorus:

Bridge prt.1:
Gtr.1:
e|------------------------------------------|
B|------------------------------------------|
G|------4-2-4-2------4-2-4-2------4-2-4-2---|
D|------------------------------------------|
A|-2-2-----------2-2----------2-2-----------|
D|------------------------------------------|
   . .  . . . .  . . . . . .  . . . . . . 

Bridge prt.2:
Gtr.1:                            Gtr.2:
e|------------------------------  -------------------------------|
B|------------------------------  -------------------------------|
G|------------------------------  --4444/6666/7777/9999/111111---|
D|-2222/4444/5555/7777/9999999--  --xxxx-xxxx-xxxx-xxxx-xxxxxx---|
A|-2222/4444/5555/7777/9999999--  --2222/4444/5555/7777/999999---|
D|-2222/4444/5555/7777/9999999--  -------------------------------|

Gtr.1:
e|------------------------------------------------------------|
B|------------------------------------------------------------|
G|------------------------------------------------------------|
D|-222222/444444---222222/444444/999999---22222/44444/99999---|
A|-222222/444444---222222/444444/999999---22222/44444/99999---|
D|-222222/444444---222222/444444/999999---22222/44444/99999---|

e|-------------------------------------------------|
B|-------------------------------------------------|
G|-------------------------------------------------|
D|-22222/44444/55555/77777---22222/44444/55555-7---|
A|-22222/44444/55555/77777---22222/44444/55555-7---|
D|-22222/44444/55555/77777---22222/44444/55555-7---|
                                               .

Gtr.2 Enters:
e|---------------------------------------------------------------|
B|---------------------------------------------------------------|
G|-7-11-9-----------------------7-11-9--------------------11b~---|
D|--------11-12-9-7-9-11-7-5-7---------11-12-9-7-11-7-5-7--------|
A|---------------------------------------------------------------|
D|---------------------------------------------------------------|

Repeat Chorus:

Outro:
e|---------------------|
B|-33-3-33---33-3-33---| Listen to the song
G|-44-4-44---44-4-44---| for timing....
D|---------------------|
A|---------------------|
D|---------------------|
   .. . ..   .. . ..

End...

  I would like to greet first offcourse my ONLY ONLY ONE,then;my relatives,my
friends on Montalban(Brgy.Balite Espiritu Subd.),My traitor friends in our school
NSDAPS San Mateo Rizal,Cocklosas,Cocklisay.Cocktabijan,Cockpistrano,Cockyatano,Cockruz,
Franciscock,Picock,Fuckmittan,Redick,Simbulbulan,Frondosuso,Bayagin,Titesta,Aldick,and many
moore,our band club(COMBO-RATS),Project X,To all my txt mates and other companie,Red Porn Records,
My friends in YM and Friendster,and most of all,hi to God...Tnx for all the blessings...

Padre Garrote:          Extra:

Dino Testa:Vocals       Andrei Frondoso:Xylophone,Triangles,Flute and Tamborine           
Edy Capistrano:Gtr.1    Mike Alvez:Sub-Guitar                               
Jiro Uezono:Gtr.2      
Ryan Manongdo:Bass       
Aeroll Cayetano:Drums   





Comments


Popular Chicosci tabs & chords
Paris 2 Bass Tabs
January Days Chords
Sink Or Swim Chords
Diamond Shotgun 2 Tabs
Last Look Tabs
Paris 6 Tabs
Soopa Fly 1 Tabs
Rolento Ukulele
Who Kissed You Last Night Ukulele
Youre Killing Me Ukulele


Song lyrics



↑ Back to top | Tablatures and chords are parodies/interpretations of the original songs. You may use it for private study, scholarship, research or language learning purposes only
© 2014 AZChords.com Contact us | Privacy policy | DMCA | Add/correct tabs | Request tabs | Top 50 tabs