» » »

Chicosci, An Argument Tabs (ver.2)

Artists:  A B C D E F G H I J K L M N O P Q R S T U V W X Y Z # 

An Argument Tabs (ver.2)

Chicosci Tabs
 Rating:
4.2/5 (5 votes)
An Argument lessons Tabs too difficult? Try these video lessons and learn fast
1
                Band: Chicosci
Drop d Tuning

Riff 1 (verse) Guitar 1
e---------------------------I
b---------------------------I
g---77-7-77---77-7-77-------I
d---99-9-99---99-9-99-------I
a---------------------------I
d---------------------------I
Guitar 2
e--------9-------------9----I
b------7-------------7------I
g----6-------------6----7---I
d--0-------------0----------I
a---------------------------I
d---------------------------I

Riff 2 Guitar 1
e-------------------------------I(2x)
b-------------------------------I
g-------------------------------I
d---9-7---9-7---9-7---9-7-------I
a-------9-----9-----9-----9-----I
d-------------------------------I
Guitar 2
e-----------------------------I
b--7--9--7-10----7--9---------I
g-----------------------------I
d-----------------------------I
a-----------------------------I
d-----------------------------I

Riff 3 (Pre-Chorus) Guitar 1
e-----------------------------I
b-----------------------------I
g-----------------------------I
d---9-7---9-7---9-7---9-7-----I
a-------9-----9-----9-----9---I
d-----------------------------I
Guitar 2
e-----------------------------I
b-----------------------------I
g-----------------------------I
d--9----11s12-----------------I
a--9----11s12-----------------I
d--9----11s12-----------------I

Riff 4 (chorus) Guitar 1
e-------------------------------I  ()First Chorus of the Song only.
b-------------------------------I   Afterwards, they become 2s
g-------------------------------I
d--(0)--------------------------I
a--(0)--------7-----7-----7-----I
d--(0)----7-9---7-9---7-9-------I

Riff 5 Bridge
            
Submit corrections

comments powered by Disqus
↑ Back to top | Chicosci Tabs for An Argument. Lyrics for acoustic guitar and electric guitar. 1 Tablatures and chords are parodies/interpretations of the original songs. You may use it for private study, scholarship, research or language learning purposes only