>
 >
7 Black Roses 1

7 Black Roses 1 Guitar Tabs

Chicosci - 7 Black Roses 1 chords, tabs, tablatures, lyrics

Guitar lessons | Add/correct | Request | Top 50 tabs Artists:  A B C D E F G H I J K L M N O P Q R S T U V W X Y Z 0-9

7 Black Roses 1 Guitar Tabs – Chicosci

CD, Sheet music, Poster

Do you like 7 Black Roses 1? Share with your friends now
Bass TabsBass Tabs v2ChordsChords v2Chords v3TabsTabs v2Tabs v3Ukulele
Song Title: Seven Black Roses
Album:Chicosci

Ito ang aking 2nd tab na sinubmit ko, mejo mali-mali pero okay n rin.

Tuning: Drop D

Intro
Gtr I
e]--------------------------[
B]---1---0---1---0---1---0--[
G]--------------------------[ ...tuloy-tuloy lng...
D]--------------------------[
A]-3---3---3---3---3---3----[
D]--------------------------[

Gtr II (00:14)
e]------------------------------------------------------------------------[
B]------------------------------------------------------------------------[
G]------------------55--------------77------------------------------------[
D]-77---------------xx--------------xx---------------99------1010---------[
A]-7777777777777777-333333333333333-5555555555555555-99999999-7-7---------[
D]-7777777777777777-333333333333333-5555555555555555-99999999-7-7777777---[
     PM------------   PM-----------   PM------------   PM----    PM-------[

Gtr I
e]-----------------------------------------------[
B]-----------------------------------------------[
G]-5~-4~-5~-4~-5~-4~-5~-4~-5~-4~-5~-4~-5~-4~--9\-[
D]-----------------------------------------------[
A]-----------------------------------------------[
D]-----------------------------------------------[

Gtr II
e]-----------------------------------------------------------------------[
B]-----------------------------------------------------------------------[
G]----------------55-------------77--------------------------------------[
D]77--------------xx-------------xx--------------99------1010------------[
A]77777777777777773333333333333335555555555555555999999991010101010101010[
D]77777777777777773333333333333335555555555555555999999991010101010101010[
    PM------------  PM-----------  PM------------  PM----    PM----------

Verse I (0:40)
When I leave...

Gtr I
e]--------------------------[
B]---1---0---1---0---1---0--[
G]--------------------------[ mawawala itong part n to at 0:55
D]--------------------------[     and fades back at 1:04
A]-3---3---3---3---3---3----[
D]--------------------------[

Gtr II
(Intro parts lng para d2)

End on
Gtr II
e]------------------[
B]------------------[
G]------------------[
D]-1010101010101010-[
A]-1010101010101010-[
D]-1010101010101010-[

Gtr I
(puro Intro parts lang)

Chorus I (1:10)
These roses died three days since...

Gtr I
e]-7-----7~-----7~-----7~-7h8p7-----[
B]---8------8------8-----------h8---[
G]-----9------9------9-----------h9-[ 4x
D]----------------------------------[
A]----------------------------------[
D]----------------------------------[

Gtr II
e]----------------[
B]----------------[
G]-------55555555-[ 4x
D]-77-33-55555555-[
A]-77-33-33333333-[
D]-77-33----------[

Interlude (1:21)
Gtr I
e]--------------------------[
B]---1---0---1---0---1---0--[
G]--------------------------[
D]--------------------------[
A]-3---3---3---3---3---3----[
D]--------------------------[

Verse II (1:26)
How do I remain complete...
(play nyo lng ung verse 1 para d2)

(repeat chorus twice)
Chorus II
These roses died three days since...
(ito ung panagalawang beses na naulit ung chorus, naiba ung lead parts)

Gtr 1 (2:10)
e]----------------------------[
B]-12\-1212\-1212\-1212\-9\12-[
G]-12\-1212\-1212\-1212\-9\12-[
D]----------------------------[
A]----------------------------[
D]----------------------------[

Gtr II
(play chorus parts)

Bridge I(2:20)
I miss you....
Gtr 1
e]-------3~-[
B]-0~-1~----[
G]----------[
D]----------[
A]----------[
D]----------[

Gtr II
(one strum each chord)
e]----------[
B]----------[
G]-------5~-[
D]-7~-3~-5~-[
A]-7~-3~-3~-[
D]-7~-3~----[

Bridge II (2:34)
Hear this I'm yours...

Gtr I
e]--------------------------[
B]---1---0---1---0---1---0--[
G]--------------------------[ tuloy-tuloy lang hanggang 3:05
D]--------------------------[
A]-3---3---3---3---3---3----[
D]--------------------------[

(then rest sa 3:05, repeat chorus at 3:18)

Final Chorus 3x
These roses died three days since...
(pang-una, 3:18)

Gtr I and II
(play chorus I parts)

These roses died three days since...
(pangalawa, 3:32)

Gtr I and II
(play chrous II parts)

These roses died three days since..
(pangatlo, 3:46)

Gtr I
e]-7-----7-----7-----7-----7~-7h10p7-----[
B]---8-----8-----8-----8------------h8---[
G]-----9-----9-----9-----9------------h9-[ 4x
D]---------------------------------------[
A]---------------------------------------[
D]---------------------------------------[

Gtr II
(play chorus parts)

End on
Gtr I
e]--------[
B]---8~---[
G]--------[
D]--------[
A]--------[
D]--------[

Gtr II
e]--------[
B]--------[
G]---5~---[
D]---5~---[
A]---3~---[
D]--------[

Yan lang ung nakayanan ko... sori po kung mali-mali, ganito kc ung pagakarinig ko e... 
pls paki-rate nman.

Dagdagan nyo na lng pag may kulang, tsaka kau na bahala sa mga mali.
Pakinggan nyo muna ung kanta bago nyo i-test ung tab ko...





Comments


Popular Chicosci tabs & chords
Last Look Bass Tabs
Paris 1 Chords
Colonized Tabs
Manila Teenage Death Squad Tabs
Manila Teenage Death Squad 1 Tabs
Open Casket Romance Tabs
Sink Or Swim Tabs
Soy Tabs
Anything For Two Ukulele
Paris Ukulele


Song lyrics



↑ Back to top | Tablatures and chords are parodies/interpretations of the original songs. You may use it for private study, scholarship, research or language learning purposes only
© 2014 AZChords.com Contact us | Privacy policy | DMCA | Add/correct tabs | Request tabs | Top 50 tabs