» » »

Chicosci, 7 Black Roses Tabs (ver.1)

Artists:  A B C D E F G H I J K L M N O P Q R S T U V W X Y Z # 

7 Black Roses Tabs (ver.1)

Chicosci Tabs
Rating:
5/5 (21 vote)
7 Black Roses lessons Tabs too difficult? Try these video lessons and learn fast
                Album:Chicosci
         
For your questions or suggestions,just post in friendster comment,PM or mail me.

Gtr.Legends:
~ - let it ring
. - palm muting
x - dead string
v - vibrato
p - pull-off
b - bend

Gtr.Tuning:Drop D
Gtr.Effects:Cycle w/Pedal
              
Intro:
Gtr.1
e|-------------|
B|-------------|
G|-12v~--9v~---| Keyboard translated to gtr.
D|-------------|
A|-------------|
D|-------------|

Gtr.2
e|--------------------------------|
B|--------------------------------| Listen to the song 
G|---5---4---5----4---5---4---5---| properly to get the timing...
D|--------------------------------|
A|-3---3---3----3---3---3---3-----|
D|--------------------------------|

Intro prt.2(when drum enters):
Gtr.1
e|---------------------------------|
B|---------------------------------|
G|---------------------------------| 2x
D|-77777-33333-55555-22222-33333---|
A|-77777-33333-55555-22222-33333---|
D|-77777-33333-55555-22222-33333---|
    ....  ....  ....  ....  ....

Gtr.2:
e|-----------------------------------------|
B|------------------------------------5b---|  
G|-5-4~--5-4~--5-4~--5-4~--5-4~--5-4~------| 
D|-----------------------------------------|
A|-----------------------------------------|
D|-----------------------------------------|  

Verse 1:When I leave...
Gtr.1
e|---------------------------------|
B|---------------------------------|
G|---------------------------------| 2x
D|-77777-33333-55555-22222-33333---|
A|-77777-33333-55555-22222-33333---|
D|-77777-33333-55555-22222-33333---|
    ....  ....  ....  ....  .... 

Gtr.2:Continue Playing Intro prt.1:

Pre-Chorus:And still you smile...
Continue playing verse 1

Chorus:This roses died....
Gtr.1:                 Gtr.2:
e|-----------------    --5-7p5-5-7p5-5-7p5-5-7p5-8---|
B|-----------------    ------------------------------|
G|----------------- 4x ------------------------------| Repeat Many times
D|-77-33-xx-555555-    ------------------------------|
A|-77-33-xx-333333-    ------------------------------|
D|-77-33-xx--------    ------------------------------|

Verse 2:How do I remain...
Play Verse 1

Pre-Chorus:A second chance...
Continue playing verse

Repeat Chorus:

Bridge prt.1:I miss you aww...
Continue playing chorus:

Bridge prt.2:Hear this I'm your's
e|--------------------------------|
B|--------------------------------| Listen to the song 
G|---5---4---5----4---5---4---5---| properly to get the timing...
D|--------------------------------|
A|-3---3---3----3---3---3---3-----|
D|--------------------------------|

e|---8-10-8--    -12-8-8-8-8-8-8--8-8-10-8-10---|
B|-8---------    -------------------------------|
G|----------- 4x -------------------------------|
D|-----------    -------------------------------|
A|-----------    -------------------------------|
D|-----------    -------------------------------|
                     . . . . . .  . . . . .

Repeat Chorus:

Last Chord:
e|------|
B|------|
G|-5~---|
D|-5~---|
A|-3~---|
D|------|

End...


Seven Black Roses Lyrics:

Verse 1:
When I leave
I wanna wait for the silence
You gave me all you’ve got
But now I stand here waving at you

Pre-Chorus 1:
And still you smile, you’e still looking back
Maybe I just wasn’t kind enough
I’m fighting urges to fall again,
Yet I stumble

Chorus:
These roses died 3 days since
Black roses died, we said goodbye
These roses died 3days since
I’m sorry, I miss you

Verse 2:
How do I remain complete
When all we bled is lost?
We could’ve burned the earth and sky

Pre-Chorus 2:
A second chance,
The seconds spent
Each other’s shadow, should’ve known
I’m fighting urges to fall again,
Yet I stumble

Repeat Chorus:

Bridge:
Hear this I’m yours
I’m at your feet

Repeat Chorus:

Inside this heart you still remain
But faded letters are erased
            

comments powered by Disqus
↑ Back to top | Chicosci Tabs for 7 Black Roses. Lyrics for acoustic guitar and electric guitar. Tablatures and chords are parodies/interpretations of the original songs. You may use it for private study, scholarship, research or language learning purposes only