» » »

Forfeit Tabs (ver.3)

Artists:  A B C D E F G H I J K L M N O P Q R S T U V W X Y Z # 

Forfeit Tabs (ver.3)

Chevelle
Rating:
0/5 (0 votes)

Hard to play? Try these video lessons and learn fast.
                (Live)
Forfeit by chevelle on the cd live from the road


Drop C (drop D whole step down) (C G C F A D) low to high

PM=Palm Mute
\= slide up
p= pull off
*= hit your hand against the top string so the strings hit the last fret making a
poping noise
INTRO
D|------------------------------------------------------------------------|
A|------------------------------------------------------------------------|
F|------------------------------------------------------------------------|
C|------------------------------------------------------------------------|
G|------------------------------------------------------------------------|
C|1\6-6-6-x-x-x-x-x-6666-x-x-x-x-x-6666-x-x-x-x-x-6666-6-6-6-6-4-4-4-4-2-2|
PM    ....................................................................

this line below goes on the line above
D|------------------------------------------------------------|
A|------------------------------------------------------------|
F|------------------------------------------------------------|
C|------------------------------------------------------------|
G|------------------------------------------------------------|
C|x-x-x-x-x-2222-x-x-x-x-x-2222-x-x-x-x-x-2222-2-2-2-2-1-1-1-1|
PM............................................................


VERSE 1
D|--------------------------------------------------------------------|
A|--------------------------------------------------------------------|
F|--------------------------------------------------------------------|
C|--------------------------------------------------------------------|
G|--------------------------------------------------------------------|
C|6-6-x-x-x-x-x-6666-x-x-x-x-x-6666-x-x-x-x-x-6666-6-6-6-6-4-4-4-4-2-2|
PM....................................................................

this line below goes on the line above
D|------------------------------------------------------------|
A|------------------------------------------------------------|
F|------------------------------------------------------------|
C|------------------------------------------------------------|
G|------------------------------------------------------------|
C|x-x-x-x-x-2222-x-x-x-x-x-2222-x-x-x-x-x-2222-2-2-2-2-1-1-1-1|
PM............................................................
                        Play Three Times


CHORUS
D|---------------|     |-----------------------|
A|---------------|     |-----------------------|
F|---------------|x 15 |-----------------------|
C|6p0-0-0-0-0-0-0|     |0-8-8-8-8-0-10-10-10-10|
G|6p0-0-0-0-0-0-0|     |0-8-8-8-8-0-10-10-10-10|
C|6p0-0-0-0-0-0-0|     |0-8-8-8-8-0-10-10-10-10|


VERSE 2
D|-------------------------------------------------------------------|
A|-------------------------------------------------------------------|
F|-------------------------------------------------------------------|
C|-------------------------------------------------------------------|
G|-------------------------------------------------------------------|
C|-6-x-x-x-x-x-6666-x-x-x-x-x-6666-x-x-x-x-x-6666-6-6-6-6-4-4-4-4-2-2|
PM...................................................................


this line below goes on the line above
D|------------------------------------------------------------|
A|------------------------------------------------------------|
F|------------------------------------------------------------|
C|------------------------------------------------------------|
G|------------------------------------------------------------|
C|x-x-x-x-x-2222-x-x-x-x-x-2222-x-x-x-x-x-2222-2-2-2-2-1-1-1-1|
PM............................................................
                        Play Three Times


CHORUS
D|---------------|     |-----------------------|
A|---------------|     |-----------------------|
F|---------------|x 15 |-----------------------|
C|6p0-0-0-0-0-0-0|     |0-8-8-8-8-0-10-10-10-10|
G|6p0-0-0-0-0-0-0|     |0-8-8-8-8-0-10-10-10-10|
C|6p0-0-0-0-0-0-0|     |0-8-8-8-8-0-10-10-10-10|


VERSE 3
He pick scr*ps the whole time
When u do the pick scr*pe do it right in front of the pickups and slide the pick up
twords the bridge to make a higher sounds and down twords the neck to make a lower
sound


BRIDGE
D|---------------|   |--------|    |---------------|
A|---------------|   |--------|    |---------------|
F|---------------|   |--------|    |---------------|
C|6p0-0-0-0-0-0-0|x4 |--------|x14 |---------------|
G|6p0-0-0-0-0-0-0|   |--------|    |0-0-0-0-0-0-0-0|
C|6p0-0-0-0-0-0-0|   |0-0-0-0*|    |0-0-0-0-0-0-0-0|
PM                                  ...............


D|--------|
A|--------|
F|--------|
C|--------|x14 then finish with a pick scr*pe going up twords the bridge
G|--------|
C|0-0-0-0*|


CHORUS
D|---------------|     |-----------------------|
A|---------------|     |-----------------------|
F|---------------|x 15 |-----------------------|
C|6p0-0-0-0-0-0-0|     |0-8-8-8-8-0-10-10-10-10|
G|6p0-0-0-0-0-0-0|     |0-8-8-8-8-0-10-10-10-10|
C|6p0-0-0-0-0-0-0|     |0-8-8-8-8-0-10-10-10-10|

and thats the end of the song...its a good song its not 100% correct but its close enough
            
Hard to play? Try these video lessons and learn fast. | Correct




comments powered by Disqus
↑ Back to top | Tablatures and chords are parodies/interpretations of the original songs. You may use it for private study, scholarship, research or language learning purposes only