>
 >
Fad 1

Fad 1 Guitar Tabs

Chevelle - Fad 1 chords, tabs, tablatures, lyrics

Guitar lessons | Add/correct | Request | Top 50 tabs Artists:  A B C D E F G H I J K L M N O P Q R S T U V W X Y Z 0-9

Fad 1 Guitar Tabs – Chevelle

CD, Sheet music, Poster

Do you like Fad 1? Share with your friends now
Bass TabsTabsTabs v2
Tuning: Drop-A# (A# F A# D# G C)

Not that many special notes about this one. It's pretty
straightforward. When listing one fingered power chords 
that are strummed quickly, I do tend to mark them adjacent 
to each other. So pay attention to the context, and don't take
a "22" as meaning the 22nd fret. In this case it means "2-2".
And in the bridge, the notes progress extremely quickly, so it
may take a while to get that down. That's about it, enjoy!


____________________________________________________________________________

[Intro and first verse: bass only]  (until 0:29)

[PRECHORUS]:
C |------------------------------------------------------------------------|
G |-12-12-12-12-12-12-12-12--12-12-12-12-12--12-12-12-12-12-12-12-12-------|
D#|-10-10-10-10-10-10-10-10--10-10-10-10-10--10-10-10-10-10-10-10-10-------|
A#|------------------------------------------------------------------------|
F |------------------------------------------------------------------------|
A#|------------------------------------------------------------------------|

C |------------------------------------------------------------------------|
G |-12-12-12-12-12-12-13-13--12-12-12-12-12-12-12-12--12-12-12-12-12-------|
D#|-10-10-10-10-10-10-10-10--10-10-10-10-10-10-10-10--10-10-10-10-10-------|
A#|------------------------------------------------------------------------|
F |------------------------------------------------------------------------|
A#|------------------------------------------------------------------------|

C |--------------------------12-12-12-12-12-12-12-12-----------------------|
G |-12-12-12-12-12-12-12-12--12-12-12-12-12-12-12-12-----------------------|
D#|-10-10-10-10-10-10-10-10------------------------------------------------|
A#|------------------------------------------------------------------------|
F |------------------------------------------------------------------------|
A#|------------------------------------------------------------------------|


[CHORUS]:       (x2)
C |------------------------------------------------------------------------|
G |------------------------------------------------------------------------|
D#|----------------------------------99999999-10-10-10-10-12-12-12-12------|
A#|-77777777-10-10-10-10-10-10-10-10-99999999-10-10-10-10-12-12-12-12------|
F |-77777777-10-10-10-10-10-10-10-10-77777777--8--8--8--8-10-10-10-10------|
A#|-77777777-10-10-10-10-10-10-10-10---------------------------------------|

C |------------------------------------------------------------------------|
G |------------------------------------------------------------------------|
D#|----------------------------------9999999999999999----------------------|
A#|-77777777-10-10-10-10-10-10-10-10-9999999999999999----------------------|
F |-77777777-10-10-10-10-10-10-10-10-7777777777777777----------------------|
A#|-77777777-10-10-10-10-10-10-10-10---------------------------------------|


[PRE-VERSE]:       (x4)
C |------------------------------------------------------------------------|
G |------------------------------------------------------------------------|
D#|------------------------------------------------------------------------|
A#|-22-22-22-22-22-0-3-----------------------------------------------------|
F |-22-22-22-22-22-0-3-----------------------------------------------------|
A#|-22-22-22-22-22-0-3-----------------------------------------------------|


[VERSE 2]:       (x8)
C |------------------------------------------------------------------------|
G |------------------------------------------------------------------------|
D#|-99-99-99-99-99-7-10----------------------------------------------------|
A#|------------------------------------------------------------------------|
F |------------------------------------------------------------------------|
A#|------------------------------------------------------------------------|


     [PRECHORUS] 

    
     [CHORUS x2]


[BRIDGE 1]:
C |------------------------------------------------------------------------|
G |------------------------------------------------------------------------|
D#|------------------------------------------------------------------------|
A#|-22-22-22-22-22-2-2023202023202023--------------------------------------|
F |-22-22-22-22-22-2-------------------------------------------------------|
A#|-22-22-22-22-22-2-------------------------------------------------------|

C |------------------------------------------------------------------------|
G |------------------------------------------------------------------------|
D#|------------------------------------------------------------------------|
A#|-22-22-22-22-22-2-2023202023202023--------------------------------------|
F |-22-22-22-22-22-2-------------------------------------------------------|
A#|-22-22-22-22-22-2-------------------------------------------------------|

C |------------------------------------------------------------------------|
G |------------------------------------------------------------------------|
D#|------------------------------------------------------------------------|
A#|-22-22-22-22-22-2-------------------------------------------------------|
F |-22-22-22-22-22-2-------------------------------------------------------|
A#|-22-22-22-22-22-2-2023202023202023--------------------------------------|

C |------------------------------------------------------------------------|
G |------------------------------------------------------------------------|
D#|-------------------------------------------------------------9\---------|
A#|-22-22-22-22-22-2-202320202320202320202320202320202320202320-9\---------|
F |-22-22-22-22-22-2--------------------------------------------7\---------|
A#|-22-22-22-22-22-2-------------------------------------------------------|


[BRIDGE 2]:
C |------------------------------------------------------------------------|
G |------------------------------------------------------------------------|
D#|------------------------------------------------------------------------|
A#|-9-7-9-10-9-7-9-7-9-10-9-7-9-7-9-10-9-7-9-7-9-10-9-7--12-12-7-7---------|
F |-9-7-9-10-9-7-9-7-9-10-9-7-9-7-9-10-9-7-9-7-9-10-9-7--12-12-7-7---------|
A#|-9-7-9-10-9-7-9-7-9-10-9-7-9-7-9-10-9-7-9-7-9-10-9-7--12-12-7-7---------|

C |------------------------------------------------------------------------|
G |------------------------------------------------------------------------|
D#|------------------------------------------------------------------------|
A#|-9-7-9-10-9-7-9-7-9-10-9-7-9-7-9-10-9-7-9-7-9-10-9-7--12-12-15-15-------|
F |-9-7-9-10-9-7-9-7-9-10-9-7-9-7-9-10-9-7-9-7-9-10-9-7--12-12-15-15-------|
A#|-9-7-9-10-9-7-9-7-9-10-9-7-9-7-9-10-9-7-9-7-9-10-9-7--12-12-15-15-------|

C |------------------------------------------------------------------------|
G |------------------------------------------------------------------------|
D#|------------------------------------------------------------------------|
A#|-9-7-9-10-9-7-9-7-9-10-9-7-9-7-9-10-9-7-9-7-9-10-9-7--12-12-7-7---------|
F |-9-7-9-10-9-7-9-7-9-10-9-7-9-7-9-10-9-7-9-7-9-10-9-7--12-12-7-7---------|
A#|-9-7-9-10-9-7-9-7-9-10-9-7-9-7-9-10-9-7-9-7-9-10-9-7--12-12-7-7---------|

C |------------------------------------------------------------------------|
G |------------------------------------------------------------------------|
D#|------------------------------------------------------------------------|
A#|-9-7-9-10-9-7-9-7-9-10-9-7-9-7-9-10-9-7-9-7-9-10-9-7--12-12-7-7---------|
F |-9-7-9-10-9-7-9-7-9-10-9-7-9-7-9-10-9-7-9-7-9-10-9-7--12-12-7-7---------|
A#|-9-7-9-10-9-7-9-7-9-10-9-7-9-7-9-10-9-7-9-7-9-10-9-7--12-12-7-7---------|

C |-----------------------------------12-12-12-12--------------------------|
G |-----------------------------------12-12-12-12--------------------------|
D#|------------------------------------------------------------------------|
A#|-2-xx-2-xx-2-xx-2-xx-2-xx-2-xx-2222-------------------------------------|
F |-2-xx-2-xx-2-xx-2-xx-2-xx-2-xx-2222-------------------------------------|
A#|-2-xx-2-xx-2-xx-2-xx-2-xx-2-xx-2222-------------------------------------|


     [CHORUS x4]


[OUTRO]:
C |------------------------------------------------------------------------|
G |------------------------------------------------------------------------|
D#|------------------------------------------------------------------------|
A#|-22-22-22-22-22-22-22-22-22-22-22-22-22-22-22-22-22-22-22---------------|
F |-22-22-22-22-22-22-22-22-22-22-22-22-22-22-22-22-22-22-22---------------|
A#|-22-22-22-22-22-22-22-22-22-22-22-22-22-22-22-22-22-22-22---------------|
____________________________________________________________________________

Symbols:

=  : hold note
\  : slide down
x  : muted strum





Comments


Popular Chevelle tabs & chords
Brainiac Bass Tabs
Panic Prone Bass Tabs
Send The Pain Below 2 Bass Tabs
The Fad Bass Tabs
I Get It 1 Chords
Family System 2 Tabs
Saferwaters 1 Tabs
Until Youre Reformed 1 Tabs
Vitamin R Leading Us Along 1 Tabs
Indifference Ukulele


Song lyrics



↑ Back to top | Tablatures and chords are parodies/interpretations of the original songs. You may use it for private study, scholarship, research or language learning purposes only
© 2014 AZChords.com Contact us | Privacy policy | DMCA | Add/correct tabs | Request tabs | Top 50 tabs