» » »

Earache My Eye Tabs (ver.3)

Artists:  A B C D E F G H I J K L M N O P Q R S T U V W X Y Z # 

Earache My Eye Tabs (ver.3)

Cheech And Chong
Rating:
2/5 (3 votes)

Hard to play? Try these video lessons and learn fast.
                I'm sorry ther's no solo.  Or intro
Anyway...
------------------------------------------|
------------------------------------------|
------------------------------------------|
------------------------------------------|
--------------5-5-2-----------------5-5-2-|
5-4-3--5-4-3----------5-4-3--5-4-3--------| (x2)
Then...
-------------------------------------------|
-------------------------------------------|
-------------------------------------------|
-------------------------------------5-6-7-|
5-7-5---------5-7-5-------5-7-6-5-5--------|
-------5-7-5---------5-7-5-----------------|
            
Hard to play? Try these video lessons and learn fast. | Correct




comments powered by Disqus
↑ Back to top | Tablatures and chords are parodies/interpretations of the original songs. You may use it for private study, scholarship, research or language learning purposes only