» » »

Save The Whales Tabs (ver.1)

Artists:  A B C D E F G H I J K L M N O P Q R S T U V W X Y Z # 

Save The Whales Tabs (ver.1)

Cheech And Chong
Rating:
1/5 (2 votes)

Hard to play? Try these video lessons and learn fast.
                This is a basic blues riff.  I’m tabbing the no-frills version.  A lot can be done to spice it up.


Introduction
E-|-------------------------------------|-----------------------------------------------|
B-|--------7--7--7--7--7--7-5-----------|---------7--7--7--7--7--7-5--------------------|
G-|--------7--7--7--7--7--7-5-----------|---------7--7--7--7--7--7-5--------------------|
D-|--------7--7--7--7--7--7-5-----------|---------7--7--7--7--7--7-5--------------------|
A-|---4\5--5--5--5--5--5----------------|---4\5---5--5--5--5--5-------------------------|
E-|-------------------------------------|-----------------------------------------------|

E-|-------------------------------------|-----------------------------------------------|
B-|--------7--7--7--7--7--7-5-----------|---------7--7--7--7----------------------------|
G-|--------7--7--7--7--7--7-5-----------|---------7--7--7--7----------------------------|
D-|--------7--7--7--7--7--7-5-----------|---------7--7--7--7----------------------------|
A-|---4\5--5--5--5--5--5----------------|---4\5---5--5--5--5----------------------------|
E-|-------------------------------------|-----------------------------------------------|




Verse
             Save the whales                                 Pretty mama save those whales
E-|-------------------------------------|-----------------------------------------------|
B-|-----------7------------7------------|-----------7-------------7---------------------|
G-|-----------7------------7------------|-----------7-------------7---------------------|
D-|-----------7------------7------------|-----------7-------------7---------------------|
A-|---4\5-5---5----4\5-5---5------------|---4\5-5---5-----4\5-5---5---------------------|
E-|-------------------------------------|-----------------------------------------------|


E-|-------------------------------------|-----------------------------------------------|
B-|--------7--7--7--7--7--7-5-----------|---------7--7--7--7--7--7-5--------------------|
G-|--------7--7--7--7--7--7-5-----------|---------7--7--7--7--7--7-5--------------------|
D-|--------7--7--7--7--7--7-5-----------|---------7--7--7--7--7--7-5--------------------|
A-|---4\5--5--5--5--5--5----------------|---4\5---5--5--5--5--5-------------------------|
E-|-------------------------------------|-----------------------------------------------|


             Save the whales                                Save those big fatfunky whales
E-|-------------------------------------|-----------------------------------------------|
B-|-------------------------------------|-----------------------------------------------|
G-|-------------------------------------|-----------------------------------------------|
D-|-----------5------------5------------|-----------5-------------5---------------------|
A-|-----------5------------5------------|-----------5-------------5---------------------|
E-|---2\3-3---3----2\3-3---3------------|---2\3-3---3-----2\3-3---3---------------------|


E-|-------------------------------------|-----------------------------------------------|
B-|--------7--7--7--7--7--7-5-----------|---------7--7--7--7--7--7-5--------------------|
G-|--------7--7--7--7--7--7-5-----------|---------7--7--7--7--7--7-5--------------------|
D-|--------7--7--7--7--7--7-5-----------|---------7--7--7--7--7--7-5--------------------|
A-|---4\5--5--5--5--5--5----------------|---4\5---5--5--5--5--5-------------------------|
E-|-------------------------------------|-----------------------------------------------|


        Save all the whales……                      But shoot the seals
E-|-------------------------------------|-----------------------------------------------|
B-|-------------------------------------|-----------------------------------------------|
G-|-------------------------------------|-----------------------------------------------|
D-|---7-7-7-7-7-7-7-7-5-----------------|-----------------------------------------------|
A-|---7-7-7-7-7-7-7-7-5-----------------|-----------------------------------------------|
E-|---5-5-5-5-5-5-5-5-3-----------------|-----------------------------------------------|

E-|-------------------------------------|-----------------------------------------------|
B-|-----------7------------7------------|-----------7-----------------------------------|
G-|-----------7------------7------------|-----------7-----------------------------------|
D-|-----------7------------7------------|-----------7-----------------------------------|
A-|---4\5-5---5----4\5-5---5------------|---4\5-5---5-----4\5---0--3---5----------------|
E-|-------------------------------------|-----------------------------------------------|
            
Hard to play? Try these video lessons and learn fast. | Correct




comments powered by Disqus
↑ Back to top | Tablatures and chords are parodies/interpretations of the original songs. You may use it for private study, scholarship, research or language learning purposes only