» » »

Cheap Trick, I Want You To Want Me Bass tabs (ver.1)

Artists:  A B C D E F G H I J K L M N O P Q R S T U V W X Y Z # 

I Want You To Want Me Bass tabs (ver.1)

Cheap Trick Tabs
 Rating:
4/5 (4 votes)
I Want You To Want Me  lessons Tabs too difficult? Try these video lessons and learn fast
                (2)
Standard Tuning

Intro  (0:14)
G-------------------------------------------------
D-------------------------------------------------
A-0--0--0--0--0--0--0--0--0--0--0--0--0--0--0--0--
E-------------------------------------------------

G-------------------------
D-------------------------
A--------5~-----0~-----0--
E-3~----------------------

1st Verse
G-------------------------------------------------------
D-------------------------------------------------------
A-12--12--12--12--12--12--12--12p10--12--10h12--12--12--
E-------------------------------------------------------

G--------------------------------------------
D--------------------------------------------
A-11--11--11--9\7--9--9--9--9--9--9--9--9p7--
E--------------------------------------------

G---------------------------------------------------------------------------
D---------------------------------------------------------------------------
A-9--9--9--9--7--7--7--7\5--5--5--5--5--5--5--5--5--5--5--5--5--4--4--4--4--
E---------------------------------------------------------------------------

G-------------------------------------------------
D-------------------------------------------------
A-------------------------------------------------
E-5--5--5--5--5--5--5--5--5--5--5--5--4--4--4--4--

G-------------------------------------------------
D-------------------------------------------------
A-------------------------------------------------
E-2--2--2--2--2--2--2--2--2--2--2--2--0--0--0--0--

1st Pre-Chorus  (0:56)
G-------------------------------------------------------------------------
D-------------------------------------------------------------------------
A-------------2--2--2--2--------------------------------------2--2--2--2--
E-2--2--2--2--------------3--3--3--3--5--5--4--3--2--2--2--2--------------

G-------------------------------------------------
D-------------------------------------------------
A-------------------------------------------------
E-3--3--3--3--3--3--3--3--2--2--2--2--2--2--3--4--

1st Chorus  (1:07)
G-------------------------------------------------
D-------------------------------------------------
A-------------------------------------------------
E-5--5--5--5--5--5--5--5--0--0--0--0--0--0--1--1--

G-------------------------------------------------
D-------------------------------------------------
A-------------------------5--5--5--5--5--4--3--2--
E-2--2--2--2--2--2--2--2--------------------------

G-------------------------------------------------
D-------------------------------------------------
A-------------------------------------------------
E-5--5--5--5--5--5--5--5--0--0--0--0--0--0--1--1--

G-------------------------------------------------
D-------------------------------------------------
A-------------------------5--5--5--5--5--4--3--0--
E-2--2--2--2--2--2--2--2--------------------------

2nd Verse  (1:26)
G------------------------------------
D------------------------------------
A-12--12--12--12--12--12--12--12p10--
E------------------------------------

2nd Pre-Chorus  (1:44)
G-------------------------------------------------------------------------
D-------------------------------------------------------------------------
A-------------2--2--2--2--------------------------------------2--2--2--2--
E-2--2--2--2--------------3--3--3--3--5--5--4--3--2--2--2--2--------------

G-------------------------------------------------
D-------------------------------------------------
A-------------------------------------------------
E-3--3--3--3--3--3--3--3--2--2--2--2--2--2--3--4--

2nd Chorus  (1:56)
G-------------------------------------------------
D-------------------------------------------------
A-------------------------------------------------
E-5--5--5--5--5--5--5--5--0--0--0--0--0--0--1--1--

G-------------------------------------------------
D-------------------------------------------------
A-------------------------5--5--5--5--5--5--5--5--
E-2--2--2--2--2--2--2--2--------------------------

G-------------------------------------------------
D-------------------------------------------------
A-------------------------------------------------
E-5--5--5--5--5--5--5--5--0--0--0--0--0--0--1--1--

G-------------------------------------------------
D-------------------------------------------------
A-------------------------5--5--5--5--5--5--5--5--
E-2--2--2--2--2--2--2--2--------------------------

1st Guitar Solo  (2:15)
G-------------------------------------------------
D-------------------------------------------------
A-------------------------------------------------
E-5--5--5--5--5--5--5--5--0--0--0--0--0--0--1--1--

G-------------------------------------------------
D-------------------------------------------------
A-------------------------5--5--5--5--5--4--3--2--
E-2--2--2--2--2--2--2--2--------------------------

3rd Chorus  (2:24)
G-------------------------------------------------
D-------------------------------------------------
A-------------------------------------------------
E-5--5--5--5--5--4--3--2--0--0--0--0--0--0--1--1--

G-------------------------------------------------
D-------------------------------------------------
A-------------------------5--5--5--5--5--5--5--5--
E-2--2--2--2--2--2--2--2--------------------------

2nd Guitar Solo  (2:34)
G-------------------------------------------------
D-------------------------------------------------
A-------------------------------------------------
E-5--5--5--5--5--5--5--5--0--0--0--0--0--0--1--1--

G-------------------------------------------------
D-------------------------------------------------
A-------------------------5--5--5--5--5--4--3--2--
E-2--2--2--2--2--2--2--2--------------------------

3rd Verse  (2:43)
G-------------------------------------------------------
D-------------------------------------------------------
A-12--12--12--12--12--12--12--12p10--12--10h12--12--12--
E-------------------------------------------------------

G--------------------------------------------
D--------------------------------------------
A-11--11--11--9\7--9--9--9--9--9--9--9--9p7--
E--------------------------------------------

G---------------------------------------------------------------------------
D---------------------------------------------------------------------------
A-9--9--9--9--7--7--7--7\5--5--5--5--5--5--5--5--5--5--5--5--5--4--4--4--4--
E---------------------------------------------------------------------------

G-------------------------------------------------
D-------------------------------------------------  X2
A-------------------------------------------------
E-5--5--5--5--5--5--5--5--5--5--5--5--4--4--4--4--

Bridge  (3:01)
G-------------------
D-------------------
A--------------x-x--
E-5~\---------------

G-r-----------------------------
D-e-----------------------------
A-s----------10-10--10--10--10--
E-t-----------------------------

Outro  (3:20)
G-------------------------------------------------
D-------------------------------------------------
A-0--0--0--0--0--0--0--0--0--0--0--0--0--0--0--0--
E-------------------------------------------------

G-----------------------------
D-----------------------------
A--------5~-----0~-----0~~~~--
E-3~--------------------------

Thats it, have fun.
GW Oct. 2003
Please rate this tab, Thanks.
            
Submit corrections

comments powered by Disqus
↑ Back to top | Cheap Trick Bass for I Want You To Want Me. Lyrics for acoustic guitar and electric guitar. Tablatures and chords are parodies/interpretations of the original songs. You may use it for private study, scholarship, research or language learning purposes only